Song name
# A B C D E F G H I J K L M N O P Q R S T U V W X Y Z

Andy Mckee - Into The Ocean tab

-------------------------------------------------------------------------------
			    	INTO THE OCEAN 
                                  ANDY McKEE
-------------------------------------------------------------------------------
Tabbed by:Alan Brown
Email:aladonna@talktalk.net

Tuning:Standard.

My simplifed take on Andy Mckee's Into The Ocean.  Originally played on a 12 string
harp guitar, I have adapted it for the usual 6.  Listen to his CD for the changes
and beat.  Thumb tap on the bottom E string.  I love this tune and hopefully most 
will be able to get the flavour of this tune from this tab.  Enjoy!!


   +  +  + +                                             +  + +  +  + +
e|-------------------0-------------------0-----------------------------------|
B|------12----10-------10--------10--------10-----------------12-------------|
G|-12---12-12-0-----------0---------0---------0----------12---12-12---12-----|
D|-12-7----12-10------------10--------10--------10-------12-7----12---12-----|
A|----7------------8-----------8-------------------8--12----7-------7--------|
E|------------------------------------------------------------------7-----3--|


e|---------------------------------------------------------------------------|
B|---------------------------------------------------------------------------|
G|--------2-------2-------2-------2-------2-------2-------2-------2----------|
D|------0-------0-------0-------0-------0-------0-------0-------0------------|
A|----4-------4-------4-------4-------4-------4-------4-------4--------------|
E|--3-------X-------X-------X-------3-------X-------X-------X----------------|

                                               P
e|---------------------------------------------------------------------------------|
B|------------0-2-------------------------2---3-2-0---------------------------0-2--|
G|--------2---------------2-------2-----------------------2-------2-------2--------|
D|------0---------------0-------0-------0---------------0-------0-------0----------|
A|----4---------------4-------4-------4---------------4-------4-------4------------|
E|--X-------X-------3-------X-------X-------X-------3-------X-------x-------x------|

e|------------------------------2-----------------------------------0-------------------------------|
B|--0-------------------------0-------------------3-------------------------------2-----------------|
G|--------2-------2-------2---------------2---------------2-------2-------2---------------2-------2-|
D|------0-------0-------0---------------0-------0-------0-------0-------0-------0-------0-------0---|
A|----2-------2-------2---------------4-------4-------4-------4-------4-------4-------4-------4-----|
E|--0-------X-------X-------X-------0-------X-------X-------X-------3-------x-------x-------x-------|


e|--2-------------------------------0--------------------------------|
B|----------------3-------------------------------2------------------|
G|--------2---------------2-------2-------2---------------2-------2--|
D|------0-------0-------0-------0-------0-------0-------0-------0----|
A|----2-------2-------2-------2-------2-------2-------2-------2------|
E|--0-------x-------x-------x-------0-------x-------x-------x--------|

            H      H            H             H      +            H     H            H      +
e|--0-2---2------2-----2-2-----2-2-----2-----2-2-2-0------0-2---2-----2-----2-2-----2-2-2-0----|
B|--0-2---2------2-----2-3-----2-3-----2-----2-3-3-0------0-2---2-----2-----2-3-----2-3-3-0----|
G|----------4------4---------4-------4-----4----------------------4-----4---------4------------|
D|------0-----0------0-----0-------0-----0-----------12-------0-----0-----0-----0-----------12-|
A|---------------------------------------------------12-------------------------------------12-|
E|---------------------------------------------------------------------------------------------|
  Hammer on to G4(B) from the open unplucked G string and let ring. 


    +  +  Continue the groove as before listen to CD for a slight change here ....
e|----------------------------------------------------------|
B|----------------------------------------------------------|
G|--12----------2-------2-------2-------2-------------------|
D|--12-7------0-------0-------0-------0---------------------|
A|-----7----4-------4-------4-------4-----------------------|
E|--------3-------X-------X-------X-------------------------|


    Middle break..........
e|--------2---------------2---------------2---------------2---------------2---------------2---------|
B|----------------0---------------0---------------0---------------0---------------0---------------0-|
G|------2-------2-------2-------2-------2-------2-------2-------2-------2-------2-------2-------2---|
D|----0-------0-------0-------0-------0-------0-------0-------0-------0-------0-------0-------0-----|
A|--X-------X-------X-------X-------X-------X-------X-------X---------------------------------------|
E|------------------------------------------------------------------3-------3-------3-------3-------|


e|--------2---------------2---------------2---------------2---------------2---------------2---------|
B|----------------0---------------0---------------0---------------0---------------0---------------0-|
G|------2-------2-------2-------2-------2-------2-------2-------2-------2-------2-------2-------2---|
D|----0-------0-------0-------0-------2-------2-------2-------2-------2-------2-------2-------2-----|
A|--------------------------------------------------------------------------------------------------|
E|--3-------3-------3-------3-------0-------0-------0-------0-------0-------0-------0-------0-------|


e|--------5---------------5---------------5---------------5-------3-------2---------------2---------|
B|----------------3---------------3---------------3-------------------------------3---------------3-|
G|------0-------0-------0-------0-------0-------0-------0-------0-------0-------0-------0-------0---|
D|----4-------4-------4-------4-------4-------4-------4-------4-------4-------2-------2-------2-----|
A|--------------------------------------------------------------------------------------------------|
E|--3-------3-------3-------3-------3-------3-------3-------3-------3-------0-------0-------0-------|

                                                    
e|--------2---------------2---------------2---------------------------------------------------------|
B|----------------3---------------3-----------------------------------------------------------------|
G|------0-------0-------0-------0-------0-------0---------2-------2-------2-------2-----------------|
D|----2-------2-------2-------2-------2-------2---------0-------0-------0-------0-------------------|
A|----------------------------------------------------4-------4-------4-------4---------------------|
E|--0-------0-------0-------0-------0-------0-------3-------X-------X-------X-----------------------|
                                                 Continue with the groove then back into the opening
    harmonic break and finish.  TaDa!!

    Well that's my simplified version, it's all here all you have to do is listen 
to the CD and mix and
    match the sections together to complete the composition.  Remember originally 
played on a harp guitar.
 

| /  slide up
| \  slide down
| H  hammer-on
| P  pull-off
| ~  vibrato
| +  harmonic
| x  Mute note
===============================================================================
Tap to rate this tab
 
# A B C D E F G H I J K L M N O P Q R S T U V W X Y Z