Song name
# A B C D E F G H I J K L M N O P Q R S T U V W X Y Z

Andy Mckee - 7-14 tab

7-14 by Andy Mckee

Tuning: B Gb Db Gb B Gb
This song is a lot of fun to play, but make sure you have good calluses on your right
index and middle fingers. To get the clearest sound out of each note, tap the string as
close to the fret as possible. I'm pretty sure this tab is 100% right. I learned most of 
it by ear, but I used Jay Gagnon's cover on Youtube for some help, so kudos to him.

For this tab, notes played with the right hand (except for plucked open strings) are bracketed.

Order of play: AAB AB CD AAB CE

A
||---2---0----------------------------2---0--------7---------0--------------|
||-----4---0----------------------------4---0-------------------------------|
||-----------2/4---0---2---0-------------------------------9---0-5-7-[9/10]-|
||---------------5-------3-----0-2-0----------[7/9]----[10]-----------------|
||--------------------------------------------------------------------------|
||--[0]-------------[5]--------------[0]------------[9]---------------------|

|---0--------------------------------------0---------------------------0----|
|-----0-------0---------0-------0------------0-------0---------0----------0-|
|------[0]-[9]-[0]-[7]---[0]-[9]-[0]-[10]-----[0]-[9]-[0]-[7]---[0]-[9]-----|
|---------------------------5--------------------------------------5--------|
|---------------------3--------------------------------------3--------------|
|-2--------------------------------------2----------------------------------|

For part B, the left hand plays notes from the other side of the neck:
|---------------------------------------------------------0----------|
|---------0-------0-------0---------------0-------0---------0--------|
|--[0]-[9]-[0]-[9]-[0]-[9]-[0]-[9]-[0]-[9]-[0]-[9]-[0]-[9]---[0]-[7]-|
|-----7-------7-------7-------7-------7-------7-------7--------------|
|--------------------------------------------------------------------|
|-5-------------------------------5----------------------------------|

|---------------------------------------------------------0----------|
|---------0-------0-------0---------------0-------0---------0--------|
|--[0]-[7]-[0]-[7]-[0]-[7]-[0]-[7]-[0]-[7]-[0]-[7]-[0]-[7]---[0]-[9]-|
|-----5-------5-------5-------5-------5-------5-------5--------------|
|--------------------------------------------------------------------|
|-7-------------------------------7----------------------------------|

|---------------------------------------------------------0----------|
|---------0-------0-------0---------------0-------0---------0--------|
|--[0]-[9]-[0]-[9]-[0]-[9]-[0]-[9]-[0]-[9]-[0]-[9]-[0]-[9]---[0]-[7]-|
|-----7-------7-------7-------7-------7-------7-------7--------------|
|--------------------------------------------------------------------|
|-5-------------------------------5----------------------------------|

|---------------------------------------------------------0----------|
|---------0-------0-------0---------------0-------0-----------0------|
|--[0]-[7]-[0]-[7]-[0]-[7]-[0]-[7]-[0]-[7]-[0]-[7]-[0]-[7]--------0--|
|-----5-------5-------5-------5-------5-------5-------5--------------|
|--------------------------------------------------------------------|
|-7-------------------------------7----------------------------------|

For parts C,D, and E, strum and finger pick like normal (here, the bracketed notes are
slapped with a little evidence of harmonics):
C
|-0------0-0-----0-0-----3-[15]-[15]-0-----0-0-----0-0-----3-[15]-[15]-|
|-0------0-0-----0-0-----3-[15]-[15]-0-----0-0-----0-0-----3-[15]-[15]-|
|-0------0-0-----0-0-----3-[15]-[15]-0-----0-0-----0-0-----3-[15]-[15]-|
|-0p3----3-3-----3-3-----3-[15]-[15]-3-----3-3-----3-3-----3-[15]-[15]-|
|-2------2-2-----2-2-----3-[15]-[15]-2-----2-2-----2-2-----3-[15]-[15]-|
|-2----2-2-2-2-2-2-2-2-2-3-[15]-[15]-2---2-2-2-2-2-2-2-2-2-3-[15]-[15]-|

|-0-----0-0-----0-0-----3-[15]-[15]-0-----0-0-----0-0-----0-0-0-0---|
|-0-----0-0-----0-0-----3-[15]-[15]-0-----0-0-----0-0-----0-0-0-0---|
|-0-----0-0-----0-0-----3-[15]-[15]-0-----0-0-----0-0-----0-0-0-0---|
|-3-----3-3-----3-3-----3-[15]-[15]-3-----3-3-----3-3-----3-3-3-3---|
|-2-----2-2-----2-2-----3-[15]-[15]-2-----2-2-----2-2-----2-2-2-2---|
|-2---2-2-2-2-2-2-2-2-2-3-[15]-[15]-2---2-2-2-2-2-2-2-2-2-2-2-2-2---|

|--------------------NH---------------------------|
|-0-------0---------<12>---------0-------0--------|
|-----0-----------0-<12>-------0-------0-------0--|
|---9-------9----------------5---------------7----|
|-------------------------------------------------|
|-7-----7-----7/9----------4-------4/5-----5------|

|--------------------NH------------------------|
|-0-------0---------<12>---------0-------------|
|-----0-----------0-<12>-------0---------------|
|---9-------9----------------5-----5-(5)/7--7--|
|----------------------------------------------|
|-7-----7-----7/9----------4----------------5--|

|-----------------------NH---------------------------|
|----0-------0---------<12>---------0-------0--------|
|--------0-----------0-<12>-------0-------0-------0--|
|--7---9-------9----------------5---------------7----|
|----------------------------------------------------|
|---------7-----7/9----------4-------4/5-----5-------|

|-----------------------NH-------------------|
|----0-------0---------<12>---------0--------|
|--0-----0-----------0-<12>-------0---0------|
|------9-------9----------------5---------3--|
|--------------------------------------------|
|---------7-----7/9----------4------------2--|

D (make this part swell with volume in the middle)
|-----------------------0-------|
|-------0-----------------0---0-|
|---0-------0---3---0-------0---|
|-----3-------3-------3---------|
|-------------------------------|
|-2---------------2-------------|

|-----------------------0-------|
|-------0-----------------0---0-|
|---0-------0---3---0-------0---|
|-----3-------3-------3---------|
|-------------------------------|
|-2---------------2-------------|

E
|-----------0--||
|--------0-----||
|-----0--------||
|--3-----------||
|--------------||
|-----------2--||
Tap to rate this tab
# A B C D E F G H I J K L M N O P Q R S T U V W X Y Z