Song name
# A B C D E F G H I J K L M N O P Q R S T U V W X Y Z

Andy Stochansky - Stutter tab

                          ~Ben's Brother: Stutter~

So this is my first tab, i decided to cover this song cause i looked for a tab earlier 
it and the others werent very good so i decided to do it myself and it was actually very easy.

Tuning: Standard
  

Into/Verse:

----------------------------------------------------------------------------------------------|
----------------------------------------------------------------------------------------------|
----------------------------------------------------------------------------------------------|
---7---7---7---8-8-8-7-7-----7---7---7---8-8-8-7-7-----7---7---7---8-8-8-7-7-----5---5---5----|
-8---8---8---8-----------8-7---7---7---7-----------7-5---5---5---5-----------5-3---3---3------|
----------------------------------------------------------------------------------------------|


Chorus (listen to style of strumming):

-------------------------|
-------------------------|
-------------------------|
2-----7-----12-----10----|
2-----7-----12-----10----|
1-----5-----10-----8-----|


And thats it!  fairly simple.  for the chorus i gave you the positions all you have to 
is listen to the music and figure out how you want to strum to it, but its all there so 
fun :)
Tap to rate this tab
# A B C D E F G H I J K L M N O P Q R S T U V W X Y Z