Song name
# A B C D E F G H I J K L M N O P Q R S T U V W X Y Z

Andy Stochansky - Wonderful Its Superman tab

-------------------------------------------------------------------------------
    		   Andy Stochansky - WONDERFUL (IT'S SUPERMAN)
-------------------------------------------------------------------------------
Tabbed by: Christine Ma
Email: klumsy_@hotmail.com

Tuning: Standard

This is my first tab and I've put in all the power chords for the whole song. 
However, I didn't tab the solo, sorry =(. Maybe in the near future. Thanks, 
you can email me any comments or questions.

e|---------------------------------------------------------------------------|
B|---------------------------------------------------------------------------|
G|--66--77--88--99----66--88--77--66----6666--7777--8888--9999----66666666-7~|
D|--77--77--77--99----77--77--77--77----7777--7777--7777--9999----77777777-7~|
A|--44--55--66--77----44--66--55--44----4444--5555--6666--7777----55555555-5~|
E|---------------------------------------------------------------------------|

e|---------------------------------------------------------------------------|
B|---------------------------------------------------------------------------|
G|------77------44--------77------44----66--77--88--99----66--88--77---------|
D|--77--77--44--44----77--77--44--44----77--77--77--99----77--77--77---------|
A|--77--55--44--22----77--55--44--22----44--55--66--77----44--66--55---------|
E|--55------22--------55------22---------------------------------------------|

e|---------------------------------------------------------------------------|
B|---------------------------------------------------------------------------|
G|--6666--7777--8888--9999----66666666-77777777------------------------------|
D|--7777--7777--7777--9999----77777777-77777777------------------------------|
A|--4444--5555--6666--7777----55555555-55555555------------------------------|
E|---------------------------------------------------------------------------|

e|---------------------------------------------------------------------------|
B|---------------------------------------------------------------------------|
G|------77------44--------77------44--------77------44----77777777--8--7--2--|
D|--77--77--44--44----77--77--44--44----77--77--44--44----77777777--7--7--4--|
A|--77--55--44--22----77--55--44--22----77--55--44--22----55555555--6--5--2--|
E|--55------22--------55------22--------55------22---------------------------|

e|---------------------------------------------------------------------------|
B|---------------------------------------------------------------------------|
G|-66xx77xx88xx99xx-66xx88xx77xx66xx-66xx-77xx-88xx-99xx-66xx-88xx-77xx-66xx-|
D|-77xx77xx77xx99xx-77xx77xx77xx77xx-77xx-77xx-77xx-99xx-77xx-77xx-77xx-77xx-|
A|-44xx55xx66xx77xx-44xx66xx55xx44xx-44xx-55xx-66xx-77xx-44xx-66xx-55xx-44xx-|
E|---------------------------------------------------------------------------|

e|---------------------------------------------------------------------------|
B|---------------------------------------------------------------------------|
G|--6666--7777--8888--9999----66666666-77777777------------------------------|
D|--7777--7777--7777--9999----77777777-77777777------------------------------|
A|--4444--5555--6666--7777----55555555-55555555------------------------------|
E|---------------------------------------------------------------------------|

e|---------------------------------------------------------------------------|
B|---------------------------------------------------------------------------|
G|------77------44--------77------44--------77------44----77777777--8--7--2--|
D|--77--77--44--44----77--77--44--44----77--77--44--44----77777777--7--7--4--|
A|--77--55--44--22----77--55--44--22----77--55--44--22----55555555--6--5--2--|
E|--55------22--------55------22--------55------22---------------------------|

e|---------------------------------------------------------------------------|
B|---------------------------------------------------------------------------|
G|---------------77------44--------77------44--------77------44----7777------|
D|--7\--7----77--77--44--44----77--77--44--44----77--77--44--44----7777------|
A|--7\--7----77--55--44--22----77--55--44--22----77--55--44--22----5555------|
E|--5\--5----55------22--------55------22--------55------22------------------|

e|---------------------------------------------------------------------------|
B|---------------------------------------------------------------------------|
G|------77------44--------77------44--------77------44----77777777-----------|
D|--77--77--44--44----77--77--44--44----77--77--44--44----77777777-----------|
A|--77--55--44--22----77--55--44--22----77--55--44--22----55555555-----------|
E|--55------22--------55------22--------55------22---------------------------|

e|---------------------------------------------------------------------------|
B|---------------------------------------------------------------------------|
G|------77------44--------77------44--------77------44----77777777--8--7--2--|
D|--77--77--44--44----77--77--44--44----77--77--44--44----77777777--7--7--4--|
A|--77--55--44--22----77--55--44--22----77--55--44--22----55555555--6--5--2--|
E|--55------22--------55------22--------55------22---------------------------|

| /  slide up
| \  slide down
| h  hammer-on
| p  pull-off
| ~  vibrato
| +  harmonic
| x  Mute note
===============================================================================
Tap to rate this tab
 
# A B C D E F G H I J K L M N O P Q R S T U V W X Y Z