Song name
# A B C D E F G H I J K L M N O P Q R S T U V W X Y Z

Andy Timmons - Strawberry Fields Forever tab

Strawberry Fields Forever (Beatles Cover)
By Andy Timmons Band
http://www.andytimmons.com/atb-story.php

Intro

e|-7---7---7---7---7---7---5---4---------5-------4--------------|
B|-9---9---9---9---9---9---6---6-------7---7---5--------7--5--2-|
G|-9---9---8---8---7---7---7---7---4s6-------4---------6---6--2-|
D|---9---9---9---9---9---9---7---7-----------------5s7-----7--2-|
A|------------------------------------------------------------0-|
E|--------------------------------------------------------------|

Primeira Parte

e|----------------------------------------|
B|----------------------------------------|
G|--6-6-6s7-6-2------2h4p2--------2-2h3---|
D|--------------2-h4--------2---4-------2-|
A|--------------------------2-------------|
E|--------------------------0-------------|

e|----------------------------|-----------------------------|----------------------|
B|----------------------------|--3s5-3-2-------2vvv---------|-2-----2--------------|
G|------------------0-2b3-----|----------4-3h4--------------|---2-----2---2s4-2vv--|
D|-2p0--------------0-0---2vvv|-----------------------------|-----4-----4----------|
A|-----2h4p0-2s4vv------------|-----------------------------|----------------------|
E|----------------------------|---------------------0h2v2v2-|----------------------|

e|----------------------------|-----------------------------|
B|----------------------------|-----------------------------|
G|-3s4-4-4-4-4-4-4-----4------|----2v2v2v-4s6-4-2s1-4-2s1---|
D|-1s2-2-2-1-1-1-x-4s5---7-6--|---------------------------4-|
A|---------------4-------5-5--|-----------------------------|
E|----------------------------|-2v--------------------------|

----

This is the far I could tab. I hope I can tab what is left soon.
Any suggestions or comments, my email is lucas dot insane2 at gmail dot com
Tap to rate this tab
# A B C D E F G H I J K L M N O P Q R S T U V W X Y Z