Song name
# A B C D E F G H I J K L M N O P Q R S T U V W X Y Z

Ane Brun - My Lover Will Go tab

Help us improve GuitareTab! Take a short survey!
Highlighted       Show chord diagrams
-------------------------------------------------------------------------------
			     MY LOVER WILL GO - Ane Brun
-------------------------------------------------------------------------------
Tabbed by: Per Budtz-Jørgensen
Email: budtz38@hotmail.com

Tuning: EADGBe
Capo: 7th fret (chord names relative to capo)


Verse:

|Em        |Em        |G(#9) B7  |Em        |Em        |


Chorus:

|Am7       |Cadd9     |G     G7  |Cmaj      | x 4

|G(#9) B7  |Em        |Em        |


Chords:

  Em     G(#9)      B7      Am7     Cadd9      G        G7      Cmaj
e|0-----------------2--------0--------0--------------------------0-----------|
B|0--------0--------0--------0h1------3--------0--------3--------0-----------|
G|0--------3--------2--------0--------0--------0--------0--------0-----------|
D|2--------0--------0--------2--------2--------0--------3--------2-----------|
A|2--------2--------2--------0--------3--------2--------2--------3-----------|
E|0--------3-----------------------------------3--------3--------------------|


| /  slide up
| \  slide down
| h  hammer-on
| p  pull-off
| ~  vibrato
| +  harmonic
| x  Mute note
===============================================================================
Related for My Lover Will Go tab