Song name
# A B C D E F G H I J K L M N O P Q R S T U V W X Y Z

Ane Brun - Are They Saying Goodbye tab

Open Gm tuning (D G D G Bb D)
(Ane Brun's Temporary Dive and To Let Myself Go are also tuned like this)
no capo


The intro and outro are played as the verses

These themes are played throughout the songs, also with small variations

Are they saying goodbye

--3----3-----------3/5--------5----------------------------0--------------------------|
----------0-----------------------0-------------6--------------6----------------------|
---------------------------------------------------------0-----------0----------------|
--------------------------------------------------------------------------------------|
--0----------0-----0------------------0---------5-------------------------------------|
--------------------------------------------------------------------------------------|


or is it just like before?

--------------------------------------------------------------------------------------|
---4---4----------3----2--------3\2----2----------------------------------------------|
-----------0---------------0-----------------0----------------------------------------|
----------------------------------------------0---------------------------------------|
---3--------------2---------------0---------------------------------------------------|
--------------------------------------------------------------------------------------|


Could it be that I

---3---------------3/5---5-------------------------0-----------------------------------|
------0----------------------------------6--------------6------------------------------|
---------0--------------------0-----------------0------------0-------------------------|
------------0--------------------------------------------------------------------------|
---0-------------------------------------5---------------------------------------------|
---------------------------------------------------------------------------------------|


made him love her more?

--8---8--\---5---5--\----0--------0---0---------------0--------0-----------------------|
--9---9--\---6---6---------------------------------------------------------------------|
------------------------------0-------------0------------------------------------------|
---------------------------------------------------------------------------------------|
--8----------5---6-------0-----------------------0-------------------------------------|
---------------------------------------------------------------------------------------|


I refuse to go deeper, chose to go...

---------------------------------------------------------------------------------------|
-----------------------0------------------------------0--------------------------------|
-----5-----5---5/6\5----0--------5-------5---5/6\5-----0-------------------------------|
-----0----------------------0-----0---------------------------0------------------------|
--0-----0---------------------0-------0------------------------------------------------|
---------------------------------------------------------------------------------------|


...blind, this trouble just shouldn't be mine

--------------------------------------------------------------------------------------|
--------------------------------------------------------------------------------------|
------3--3--3--3--3p0--0---------------2h3p2p0---3p0--0-------------------------------|
----------------------------------------------------------------0---------------------|
--------------------------------------------------------------------------------------|
---3------------3----------------0--2-----------------2-------------------------------|


but it's confusing my existence, it is intruding my mind

---------------------------------------------------------------------------------------|
------------------------0------------------------------0-------------------------------|
-----5-----5---5/6\5-----0--------5------5---5/6\5------0------------------------------|
-----0-----------------------0-----0--------------------------0------------------------|
--0-----0----------------------0-------0-----------------------------------------------|
---------------------------------------------------------------------------------------|


I guess this trouble is also mine

--------------------------------------------------------------------------------------|
--------------------------------------------------------------------------------------|
------3--3--3--3--3p0--0---------------2h3p2p0---3p0--0------0--0-----0--0------------|
----------------------------------------------------------------0----------0----------|
--------------------------------------------------------------------------------------|
---3------------3----------------0--2-----------------2---------2---------------------|


h = hammer on
p = pull-off
/ = slide up
\ = slide down
Tap to rate this tab
# A B C D E F G H I J K L M N O P Q R S T U V W X Y Z