Song name
# A B C D E F G H I J K L M N O P Q R S T U V W X Y Z

Ane Brun - Big In Japan tab

Hi, this is my first tab ever (for real), only submitted chords before.
So I don't know how good it really is, you tell me.

----------------------------------------------------------------------------
			     BIG IN JAPAN - Ane Brun 
----------------------------------------------------------------------------
Tabbed by: Kevin Croner aka Kevin2407
Email: kevincroner@hotmail.com

Tuning: eADGBE

- Listen to the song for Timing and Rhythm -


e|--1-1----1-1-----1-1----1-1---1-1---1-1----3-3---3-3----1-1---1-1---1-1--|
B|---3-3----3-3---3-3----3-3---3-3-3-3-3-3--3-3---3-3-3--3-3---3-3---3-3---|
G|-------------------------------------------------------------------------|
D|0------0---------------------------------------2------0-----0-----0------|
A|--------------1------1------3-----3------0-------------------------------|
E|-------------------------------------------------------------------------|

e|--1-1-----1-1----3-3----1-1------(3)-------------------------------------|
B|-3-3-3---3-3-3--3-3-3--3-3-3---(3)---------------------------------------|
G|-------------------------------------------------------------------------|
D|0--------------2--------------2--------0---------------------------------|
A|-------0--------------0--------------------------------------------------|
E|-------------------------------------------------------------------------|

                                            " Winter cityside..."

NOTE: The rest of the song sounds VERY similiar to 
this but with different low notes.
 Check the chords here on UG to find them.


| /  slide up
| \  slide down
| h  hammer-on
| p  pull-off
| ~  vibrato
| +  harmonic
| x  Mute note
|(3) Ghost Notes

============================================================================
Tap to rate this tab
 
# A B C D E F G H I J K L M N O P Q R S T U V W X Y Z