Song name
# A B C D E F G H I J K L M N O P Q R S T U V W X Y Z

Ane Brun - Balloon Ranger tab

Ane Brun - Balloon Ranger(Intro)
Album: A Temorary Dive 2005
Tuning: E A D f# a d
Tab by Aleksandar M.


This is intro, for now, although Ane plays this theme through whole song,
with small variations.
Corrections and suggestions of any kind are welcome.


 |-------------------------|---------------------------| 
 |-------------------------|----2-----2-----2----------|    
 |----0------0------0---0--|------0-----0-----0--------|     
 |----2--------2--0--------|--------0-----0--------0---|     
 |---------------------0---|-2-------------------------|    
 |--0----(0)---------------|---------------------------|     


 |-------------------------|--------------------------| 
 |--------------------2b---|----2-----2-----2p0-------|    
 |----0~-----0------0------|------0-----0-------------|     
 |----2~-------2--0--------|--------0-----0-------0---|     
 |-------------------------|-2------------------------|    
 |--0----(0)---------------|--------------------------|     



 |-------------------------|---------------------------| 
 |-------------------------|----2-----2-----2----------|    
 |----0------0------0---0--|------0-----0-----0--------|     
 |----2--------2--0--------|--------0-----0--------0---|     
 |---------------------0---|-2-------------------------|    
 |--0----(0)---------------|---------------------------|     


 |-------------------------|------------------------------------------------| 
 |-------------------------|----2-----2-----2-----------2-----2-----2-------|    
 |----0------0------0---0--|------0-----0-----0-----------0-----0-----0-----|     
 |----2--------2--0--------|--------0-----0--------0--------0-----0-------0-|     
 |---------------------0---|-2------------------------2---------------------|    
 |--0----(0)---------------|------------------------------------------------|  

p = pull of
b = bend
~ = let ring
Tap to rate this tab
 
# A B C D E F G H I J K L M N O P Q R S T U V W X Y Z