Song name
# A B C D E F G H I J K L M N O P Q R S T U V W X Y Z

Ane Brun - Big In Japan tab

Capo 5

---6-6------6-6--------6-6-------6-6-------6-6--------6-6---|
----7-7------7-7------7-7-7-----7-7-7-----7-7-7------7-7-7--|
------------------------------------------------------------|
------------------------------------------------------------|
-5--------5-------------------------------------------------|
--------------------6---------6---------8----------8--------|

---8-8------8-8-------6-6------6-6------6-6------6-6--------|
--7-7-7----7-7-7-----7-7-7----7-7-7----7-7-7----7-7-7-------|
------------------------------------------------------------|
------------------------------------------------------------|
----------7-------------------------------------------------|
-5-----------------6--------6--------6--------6-------------|

---8-8------8-8-------8-8------8-8------|
--7-7-7----7-7-7-----7-7-7----7-7-7-----|
----------------------------------------|
----------7------------------7----------|
-5------------------5-------------------|
Tap to rate this tab
 
# A B C D E F G H I J K L M N O P Q R S T U V W X Y Z