Song name
# A B C D E F G H I J K L M N O P Q R S T U V W X Y Z

Ane Brun - Humming One Of Your Songs tab

Humming One Of Your Songs
By: Ane Brun

Capo: VI


INTRO/VERSES: (continue to repeat)


     Em                           Esus                              Em                /Em7
e---------------------------------------------------------------------------------------------|
b---------------------------------------------------------------------------------------------|
g---------------------------------------------------------------------------------------------|
d---2------2---2---2-----2------2---2---2-----2------2---2---2---2/5---5---5---0---0----------| x2
a---2------2---2---2-----0------0---0---0-----2------2---2---2---2/5---5---5---0---0----------|
e---0------0---0---0-----0------0---0---0-----0------0---0---0---0-----0---0---0---0----------|


     G                           Gsus2                    G                       /Bb
e-------------------------------------------------------------------------------------------|
b-------------------------------------------------------------------------------------------|
g-------------------------------------------------------------------------------------------|
d---0------0---0---0-----0------0---0---0-----0-----0---0---0---0/0---0---0---0---0---------| x2
a---2------2---2---2-----0------0---0---0-----2-----2---2---2---2/5---5---5---0---0---------|
e---3------3---3---3-----3------3---3---3-----3-----3---3---3---3/6---6---6---6---6---------|



CHORUS:
      Am7
e---3------3---3---3-----0------0---0---0--------------|
b---1------1---1---1-----1------1---1---1--------------|
g---0------0---0---0-----0------0---0---0--------------|    x4
d---2------2---2---2-----2------2---2---2--------------|
a------------------------------------------------------|
e------------------------------------------------------|



(verse 1)
I am walking
I am walking along
And I am humming
I am humming
One of your songs

(chorus)
I just know one small verse in the middle of it
But it makes me wanna hear it
On and on and on and on
I just know one small verse in the middle of it
But it makes me wanna hear it
On and on and on and on

(verse 2)
Everyday I hear your song now
Everyday
It won´t go away.
So I am humming
I am humming
One of your songs

(chorus)
I just know one small verse in the middle of it
But it makes me wanna hear it
On and on and on and on
I just know one small verse in the middle of it
But it makes me wanna hear it
On and on and on and on

(insturmental, but continue to play the verse pattern)

So I am humming
I am humming
One of your songs


just listen to the song for exact strumming patterns but it's a fun song to play. :)
Tap to rate this tab
 
# A B C D E F G H I J K L M N O P Q R S T U V W X Y Z