Song name
# A B C D E F G H I J K L M N O P Q R S T U V W X Y Z

Ane Brun - Big In Japan tab

Okay, so. I've noticed that none of the tabs are correct so I made it my personal 
duty to fix it. So... HERE IT IS! 
(Sorry if it's a bit messy, I made it in a hurry, hope you'll understand anyway) 

this is as played live by Ane.

Lyrics at the bottom

Tuning:
Eb Ab Db G# B Eb      Capo 6


Intro:
Eb|----------------------------------------------------|
B |----0-0----0-0--------0-0----0-0-----0-0----0-0-----|
G#|---0-0----0-0-0------0-0----0-0-0---0-0----0-0-0----|
Db|----------------------------------------------------|
Ab|-0------0-------------------------------------------|
Eb|-------------------1------1-------3------3----------|

Eb|------------------------------------------------------|
B |----0-0------0-0---------0-0----0-0-----0-0-----0-0---|
G#|---2-2------2-2-2-------0-0----0-0-0---0-0-----0-0-0--|
Db|------------------------------------------------------|
Ab|---------2--------------------------------------------|
Eb|-0--------------------1------1--------1------1--------|

Eb|---------------------------------------------|
B |----0-0----0-0-------0-0------0-0------------|
G#|---2-2----2-2-2-----2-2------2-2-2-----------|
Db|---------------------------------------------|
Ab|--------2-----------------2------------------|
Eb|-0----------------0--------------------------|


Vers:
Eb|------------------------------------------------------|
B |----0-0----0-0------0-0----0-0--------0-0-----0-0-----|
G#|---0-0----0-0-0----0-0----0-0-0------0-0-----0-0-0----|
Db|------------------------------------------------------|
Ab|-0------0---------------------------------------------|
Eb|-----------------1------1----------3-------3----------|

Eb|---------------------------|
B |----0-0----0-0-------------|
G#|---2-2----2-2-2------------|
Db|---------------------------|
Ab|--------2------------------|
Eb|-0-------------------------|


Pre-chorus:
Eb|----------------------------------------------------|
B |----0-0------0-0-----0-0------0-0------0-0----0-0---|
G#|---0-0-0----0-0-0---0-0-0----0-0-0----0-0----0-0-0--|
Db|----------------------------------------------------|
Ab|-0--------------------------------------------------|
Eb|----------1--------3-------0--------1------1--------|

Eb|---------------------------|
B |----0-0----0-0-------------|
G#|---2-2----2-2-2------------|
Db|---------------------------|
Ab|--------2------------------|
Eb|-0-------------------------|

Eb|----------------------------------------------------|
B |----0-0------0-0-----0-0------0-0------0-0----0-0---|
G#|---0-0-0----0-0-0---0-0-0----0-0-0----0-0----0-0-0--|
Db|----------------------------------------------------|
Ab|-0--------------------------------------------------|
Eb|----------1--------3-------0--------1------1--------|

Eb|----------------------------------|
B |----0-0----0-0------0-0----0-0----|
G#|---2-2----2-2-2----2-2----2-2-2---|
Db|----------------------------------|
Ab|--------2-------------------------|
Eb|-0---------------0------0---------|

Chorus:
Eb|----------------------------------------------------|
B |----0-0----0-0--------0-0----0-0-----0-0----0-0-----|
G#|---0-0----0-0-0------0-0----0-0-0---0-0----0-0-0----|
Db|----------------------------------------------------|
Ab|-0------0-------------------------------------------|
Eb|-------------------1------1-------3------3----------|

Eb|------------------------------------------------------|
B |----0-0------0-0---------0-0----0-0-----0-0-----0-0---|
G#|---2-2------2-2-2-------0-0----0-0-0---0-0-----0-0-0--|
Db|------------------------------------------------------|
Ab|---------2--------------------------------------------|
Eb|-0--------------------1------1--------1------1--------|

Eb|---------------------------------------------|
B |----0-0----0-0-------0-0------0-0------------|
G#|---2-2----2-2-2-----2-2------2-2-2-----------|
Db|---------------------------------------------|
Ab|--------2-----------------2------------------|
Eb|-0----------------0--------------------------|



Eb|----------------------------------------------------|
B |----0-0----0-0--------0-0----0-0-----0-0----0-0-----|
G#|---0-0----0-0-0------0-0----0-0-0---0-0----0-0-0----|
Db|----------------------------------------------------|
Ab|-0------0-------------------------------------------|
Eb|-------------------1------1-------3------3----------|

Eb|------------------------------------------------------|
B |----0-0------0-0---------0-0----0-0-----0-0-----0-0---|
G#|---2-2------2-2-2-------0-0----0-0-0---0-0-----0-0-0--|
Db|------------------------------------------------------|
Ab|---------2--------------------------------------------|
Eb|-0--------------------1------1--------1------1--------|

Eb|---------------------------------------------|
B |----0-0----0-0-------0-0------0-0------------|
G#|---2-2----2-2-2-----2-2------2-2-2-----------|
Db|---------------------------------------------|
Ab|--------2-----------------2------------------|
Eb|-0----------------0--------------------------|

Eb|---------------------------------------------|
B |----0-0----0-0-------0-0------0-0------------|
G#|---2-2----2-2-2-----2-2------2-2-2-----------|
Db|---------------------------------------------|
Ab|--------2-----------------2------------------|
Eb|-0----------------0--------------------------|



Repeat vers, pre-chorus and chorus


End on 

Eb|-------|
B |---0---|
G#|---0---|
Db|-------|
Ab|---0---|
Eb|-------|

Tap to rate this tab
# A B C D E F G H I J K L M N O P Q R S T U V W X Y Z