Song name
# A B C D E F G H I J K L M N O P Q R S T U V W X Y Z

Ane Brun - Big In Japan tab

Capo 5-th fret

e||-----------------------------------------------------------|
B||---6-6------6-6------6-6------6-6------6-6------6-6--------|
G||--7-7-7----7-7-7----7-7-7----7-7-7----7-7-7----7-7-7-------|
D||-----------------------------------------------------------|
A||-5--------5------------------------------------------------|
E||-------------------6--------6--------8--------8------------|

e||-----------------------------------------------------------|
B||---8-8------8-8------6-6------6-6------6-6------6-6--------|
G||--7-7-7----7-7-7----7-7-7----7-7-7----7-7-7----7-7-7-------|
D||-----------------------------------------------------------|
A||----------7------------------------------------------------|
E||-5-----------------6--------6--------6--------6------------|

e||-----------------------------------------------------------|
B||---8-8------8-8------8-8------8-8--------------------------|
G||--7-7-7----7-7-7----7-7-7----7-7-7-------------------------|
D||-----------------------------------------------------------|
A||----------7-----------------7------------------------------|
E||-5-----------------5---------------------------------------|
Tap to rate this tab
 
# A B C D E F G H I J K L M N O P Q R S T U V W X Y Z