Song name
# A B C D E F G H I J K L M N O P Q R S T U V W X Y Z

Ane Brun - Halo tab

Ane Brun - Halo (Beyoncé cover)


Standard tuning:

B        799877
C#m      911999
G#m      466444
E        022100

So here goes the main guitar tab, the rest of the song is laid out all the same it seems. Enjoy!

  |B                          |C#m
e:------------------------------------------------------------|
B:------------------------------------------------------------|
G:-----8-------------8--------------9---------------9---------|
D:------------------------------------------------------------|
A:---9-----9-------9-----9-------11-----11-------11-----11----|
E:-7-----7-------7-----7-------9------9--------9------9-------|

  |G#m                        |E
e:------------------------------------------------------------|
B:------------------------------------------------------------|
G:-----4-------------4-------------1-------------1------------|
D:------------------------------------------------------------|
A:---6-----6-------6-----6-------2-----2-------2-----2--------|
E:-4-----4-------4-----4-------0-----0-------0-----0----------|
Tap to rate this tab
# A B C D E F G H I J K L M N O P Q R S T U V W X Y Z