Song name
# A B C D E F G H I J K L M N O P Q R S T U V W X Y Z

Aneka - Japanese Boy tab

Intro
e|-------10-12-10----10-------------------------------10~----|
B|-10-12----------12----12-10----10--------------------------|
G|----------------------------12----12-10----10~---12~-------|
D|----------------------------------------12-----------------|
A|-----------------------------------------------------------|
E|-----------------------------------------------------------|

Chorus
e|-------10-12-10----10-----------------------10-------------|
B|-10-12----------12----12-10~--12-10~--10-12----12-10-8~----|
G|-----------------------------------------------------------|
D|-----------------------------------------------------------|
A|-----------------------------------------------------------|
E|-----------------------------------------------------------|
Tap to rate this tab
 
# A B C D E F G H I J K L M N O P Q R S T U V W X Y Z