Guitaretab - guitar tabs
Song name
# A B C D E F G H I J K L M N O P Q R S T U V W X Y Z

Anette Moreno - Un Angel Llora tab

Se oye bien,  SE TOCA EN Em (acompaņamiento):
INTRO:

E/--------------------------------------------|
B/--------------------------------------------|
G/--------------12-11-11-9--11-9--7/9--7-7--5-|
D/----------9---------------------------------|
A/--------------------------------------------|
E/--------------------------------------------|

E/---------------------------------------------------|
B/----5-6-7-7-7-7-7-------8--7-7-7-7-7---------------|
G/---------------------9--------------------11-12-11-|
D/-------------------9-------------------9-----------|
A/---------------------------------------------------|
E/---------------------------------------------------|

lAS FLORES YA NO LLEGAN, EL POEMA SE ACABO,
LO QUE UN DIA FUE AMOR EN AMARGURA SE VOLVIO (tab2)

tab2:

e/-------------------------------------------------|
b/----10-8-7----5-4-5--7---7/8---------------------|
g/-------------------------------------------------|
D/-------------------------------------------------|
A/-------------------------------------------------|
E/-------------------------------------------------|

ELLA QUIERE REGRESAR EL TIEMPO Q PASO,
PARA PODER REVIVIR LOS PLACERES DEL AYER,

YA NO PUEDE VER LAS COSAS IGUAL, POR QUE EN EL MAR DE OLVIDO
TODO YA QUEDO, YA EL OCEANO HA PERDIDO SU COLOR AZUL,

LAS ESTRELLAS MIRAN, (tab3)
TAB3:

e/----8-8-8-7--------------------------------------|
b/-------------------------------------------------|
g/-------------------------------------------------|
D/-------------------------------------------------|
A/-------------------------------------------------|
E/-------------------------------------------------|

LA LUNA LA ABRAZA(tab4)
tab4:
[ Tab from: http://www.guitaretab.com/a/anette-moreno/98358.html ]
e/----7-7-7-5--------------------------------------|
b/-------------------------------------------------|
g/-------------------------------------------------|
D/-------------------------------------------------|
A/-------------------------------------------------|
E/-------------------------------------------------|

Y UN ANGEL LLORA,(tab5 A**B)

       A
e/-12-14-15-15-14--19------------------------------|
b/--------------------19-17------------------------|
g/---------------------------***-------------------|
D/-------------------------------------------------|
A/-------------------------------------------------|
E/-------------------------------------------------|

        B
e/-------------------------------------------------|
b/-----------------------12-13-12------------------|
g/-----9--11-12-***12-14----------14--12-11-11--9--|
D/-------------------------------------------------|
A/-------------------------------------------------|
E/-------------------------------------------------|

PASARON YA LOS AŅOS, YA EL SE OLVIDO,
DE EL AMOR QUE PROMETIO CUANDO LA CONOCIO,(tab2)
ENTRA A LA HABITACION Y EN LA CAMA EL LA VIO,

TOMA SU CUERPO FRIO LA TRISTEZA LA MATO...tab6

tab6
e/---------------------------------------------------------|
b/-----------------------12-13-12-----15-15-13-13-12-12-10-|
g/9-11-9-11-12-**-12--14----------14-----------------------|
D/---------------------------------------------------------|
A/---------------------------------------------------------|
E/---------------------------------------------------------|


LAS FLORES YA LLEGARON, EL POEMA EMPEZO,
SOBRE UNA TUMBA FRIA EL LLORA SU DOLOR, (tab7)

e/------------------------------------------------|
b/-13-13-12---------------------------------------|
g/-----------14-12-12-14--14/16-------------------|
D/------------------------------------------------|
A/------------------------------------------------|
E/------------------------------------------------|

EL SOLO QUIERE REGRESAR EL TIEMPO QUE PASO, PARA PODER
PERDERSE ASI, EN LA HERMOSURA DE SU VOZ....

SUBE Y SE REPITE

YA NO PUEDE VER LAS COSAS IGUAL, POR QUE EN EL MAR DE OLVIDO
TODO YA QUEDO, YA EL OCEANO HA PERDIDO SU COLOR AZUL,
Related for Un Angel Llora tab
Advertisement will be closed in 10 seconds