Song name
# A B C D E F G H I J K L M N O P Q R S T U V W X Y Z

Anew Revolution - Head Against The Wall tab

Haven't seen any tabs from Anew Revolution on the sight, so I thought I would put up 
what I was able to figure out from the song. Hope this helps somebody get started so that 
they can get the rest of the song figured out.


                                X7
|----------------|----------------|----------------|
|----------------|----------------|----------------|
|8-7---7-----8-7-|--7-----5-7----*|----------------|
|----0-----0-----|0-----0-----0--*|7---------------|
|----------------|----------------|----------------|
|----------------|----------------|----------------|
                                                                 X4
|----------------|----------------|----------------|----------------|
|----------------|----------------|----------------|----------------|
|----------------|----------------|----------------|---------------*|
|6-0---0---0-1-0-|--0---0-3---5---|6-6-6-6-6-3-6-5-|5-5-5-5-5-5-3-3*|
|6-0---0---0-1-0-|--0---0-3---5---|6-6-6-6-6-3-6-5-|5-5-5-5-5-5-3-3-|
|6-0---0---0-1-0-|--0---0-3---5---|6-6-6-6-6-3-6-5-|5-5-5-5-5-5-3-3-|
Tap to rate this tab
# A B C D E F G H I J K L M N O P Q R S T U V W X Y Z