Song name
# A B C D E F G H I J K L M N O P Q R S T U V W X Y Z

Angel Beats - Answer Song tab

Electric Guitar

     Q    W                H.              Q    W                H.            
E||-------------------------------------|-------------------------------------|
B||--8----8-----------------------------|--7----7-----------------------------|
G||--7----7-----------------------------|--7----7-----------------------------|
D||--5----5-----------------------------|--4----4-----------------------------|
A||-------------------------------------|-------------------------------------|
E||-------------------------------------|-------------------------------------|


                                                           NH  NH  NH                 
  Q    W                H.              Q    H        E    S   S   H.           Q     
-------------------------------------|-----------------------------------------------|
--7----7-----------------------------|--7----8--------L------------------------------|
--4----4-----------------------------|--7----7--------L----------<>5-----------------|
--4----4-----------------------------|--4----5--------L------<>5---------------------|
-------------------------------------|-------------------<>5-------------------------|
-------------------------------------|-----------------------------------------------|


  E    E   E  Q    E   Q     E  E   E   Q     E  Q     
----------------------------10-----10-----------------|
--8s--10s--8--8----8--10----10-----10--10----10--8----|
--7s---9s--7--7----7---9----------------9-----9--7----|
------------------------------------------------------|
------------------------------------------------------|
------------------------------------------------------|


  E    E   E  Q    E   Q     E  E   S   S   Q     E  Q     
----------------------------10-----10s-12s-10-------------|
--8s--10s--8--8----8--10----10-----10s-12s-10----10--8----|
--7s---9s--7--7----7---9--------------------------9--7----|
----------------------------------------------------------|
----------------------------------------------------------|
----------------------------------------------------------|


  E    E   E  Q    E   Q     E  E   E   Q     E  Q     
----------------------------10-----10-----------------|
--8s--10s--8--8----8--10----10-----10--10----10--8----|
--7s---9s--7--7----7---9----------------9-----9--7----|
------------------------------------------------------|
------------------------------------------------------|
------------------------------------------------------|


  E    E   E  Q    S  S  E  Q    E  E  E  E  E  Q       E    E  E  E  W.                
-----------------------------------------------------|---------------------------------|
--8s--10s--8--8------------------------------7-------|--8s--10--8--8-------------------|
--7s---9s--7--7----7s-9s-7--7-------7--9--L--7-------|--7s---9--7--7-------------------|
-------------------7s-9s-7--7----9--7--9--L----------|---------------------------------|
---------------------------------9-------------------|---------------------------------|
-----------------------------------------------------|---------------------------------|


  E    E  E  E  W                E   E   E  E     E    E  E  E  W.                
-----------------------------------------x-----|---------------------------------|
--8s--10--8--8-----------------------x---------|--8s--10--8--8-------------------|
--7s---9--7--7---------------------------------|--7s---9--7--7-------------------|
-----------------------------------------------|---------------------------------|
-----------------------------------------------|---------------------------------|
-----------------------------------------------|---------------------------------|


                              PM   PM PM PM                                         PM PM       
  E    E  E  E  H        E    Q    E  E  Q.        E    E  E  E  W                  E  Q    E   
------------------------------------------------|----------------------------------------------|
--8s--10--8--8----------------------------------|--8s--10--8--8--------------------------------|
--7s---9--7--7--------------7g9----7------------|--7s---9--7--7------------------------7-------|
--------------------------------------9--7------|---------------------------------7g9----------|
------------------------------------------------|----------------------------------------------|
------------------------------------------------|----------------------------------------------|


                            PM PM PM PM PM                                   PM  PM PM PM PM PM     
  E    E  E  E  H        E  E  E  E  E  E  Q       E    E  E  E  H        E  E   E  E  E  E  E  E   
------------------------------------------------|--------------------------------------------------|
--8s--10--8--8----------------------------------|--8s--10--8--8-----------------10-----8-----7-----|
--7s---9--7--7-----------------9-----7--9-------|--7s---9--7--7--------------7------7-----7--------|
----------------------------9-----9-------------|--------------------------------------------------|
------------------------------------------------|--------------------------------------------------|
------------------------------------------------|--------------------------------------------------|


  E    E  E  E  Q.     E  E  E  E  E  E  E  E  E     Q    E   Q    E  E   Q    E  E  H        E   
--------------------------------------------------|----------------------------------------------|
--8s--10--8--8------------7-----7-----8-----8-----|--7-------10----8-----10----8-----------------|
--7s---9--7--7---------7-----7-----7-----7-----7--|-------7-----------7-----------7--------------|
--------------------------------------------------|----------------------------------7-----------|
--------------------------------------------------|----------------------------------------------|
--------------------------------------------------|----------------------------------------------|


   E  E  E   Q    E  E  Q    E  E  H        E     E  E  E  Q    E  E   Q    E  E  H        E   
------------------------7----------7-----------|----------------------------------------------|
---------8--10----8----------8-----------------|--7--------8----------10----8-----8-----------|
------7--------------7----------7--------------|-----7----------7--------------7--------------|
-----------------------------------------------|--------7----------7--------------------------|
--10-------------------------------------------|----------------------------------------------|
-----------------------------------------------|----------------------------------------------|


   Q.      Q.      Q     E  E  E   H        E     E  E  E  Q.      Q    E  Q    E   E   E  E  E   
--10------10------10----10--------10-----------|-------------------------------------------------|
-----------8-------------8--8------------------|--7--------8------10-------8----7s--8s--7--------|
-------------------------------7---------------|-----7-------------7-----------------------7-----|
-----------------------------------------------|--------7----------------------------------------|
-----------------------------------------------|-------------------------------------------------|
-----------------------------------------------|-------------------------------------------------|


    NH   NH   NH   NH   NH   NH   NH   NH   NH   NH   NH   NH             
    E    E    E    E    E    E    E    E    E    E    E    E  Q    Q      
-------------------------------------------------------------------------|
-------------------------------------------------------------------------|
----------------------<>5--<>5-------------------------------------------|
--<>5------------<>5--<>5--<>5--<>5--<>5--<>5--<>5--<>5--<>5-------------|
--<>5--<>5---------------------------------------------------------x\----|
------------<>5----------------------------------------------------------|


  Q    E  E  Q    E  E  Q    E  E  Q    E  E     Q    E  E  Q    E  E  Q    E  E  Q    E  E   
----------------------------------------------|----------------------------------------------|
----------------------------------------------|----------------------------------------------|
----------------------------------------------|--7----7--7--7----7--7--7----7--7--7----7--7--|
--2----2--2--2----2--2--2----2--2--2----2--2--|--7----7--7--7----7--7--7----7--7--7----7--7--|
--2----2--2--2----2--2--2----2--2--2----2--2--|--5----5--5--5----5--5--5----5--5--5----5--5--|
--0----0--0--0----0--0--0----0--0--0----0--0--|----------------------------------------------|


  Q    E  E  Q    E  E  Q    E  E  Q    E  E   
----------------------------------------------|
----------------------------------------------|
--4----4--4--4----4--4--4----4--4--4----4--4--|
--4----4--4--4----4--4--4----4--4--4----4--4--|
--2----2--2--2----2--2--2----2--2--2----2--2--|
----------------------------------------------|


    Q.       Q      E  Q.        E   E      E   E   E   Q     
-------------------------------------------------------------|
-------------------------------------------------------------|
--3g5------5g7----7g9--9------9g11--11--11g12--12--11--12----|
-------------------------------------------------------------|
-------------------------------------------------------------|
-------------------------------------------------------------|


  Q    E  E  Q    E  E  Q    E  E  Q    E  E     Q    E  E  Q    E  E  Q    E  E  Q    E  E   
----------------------------------------------|----------------------------------------------|
----------------------------------------------|----------------------------------------------|
----------------------------------------------|--7----7--7--7----7--7--7----7--7--7----7--7--|
--2----2--2--2----2--2--2----2--2--2----2--2--|--7----7--7--7----7--7--7----7--7--7----7--7--|
--2----2--2--2----2--2--2----2--2--2----2--2--|--5----5--5--5----5--5--5----5--5--5----5--5--|
--0----0--0--0----0--0--0----0--0--0----0--0--|----------------------------------------------|


  Q    E  E  Q    E  E  Q    E  E  Q    E  E   
----------------------------------------------|
----------------------------------------------|
--4----4--4--4----4--4--4----4--4--4----4--4--|
--4----4--4--4----4--4--4----4--4--4----4--4--|
--2----2--2--2----2--2--2----2--2--2----2--2--|
----------------------------------------------|


    Q.       Q      E  Q.        E   E      E   E   E   Q     
-------------------------------------------------------------|
-------------------------------------------------------------|
--3g5------5g7----7g9--9------9g11--11--11g12--12--11--12----|
-------------------------------------------------------------|
-------------------------------------------------------------|
-------------------------------------------------------------|


                                PM PM PM                                                          
  E    E  E  E  H        Q.     E  E  Q.        E    E  E  E  H        Q.     S  S  E  E  E   E   
---------------------------------------------|---------------------------------------------------|
--8s--10--8--8-------------------------------|--8s--10--8--8------------------7h-8p-7------------|
--7s---9--7--7------------------------7------|--7s---9--7--7---------------------------9--7------|
--------------------------------7--9---------|---------------------------------------------------|
---------------------------------------------|-----------------------------------------------10--|
---------------------------------------------|---------------------------------------------------|


  E    E  E  E  H         E.   E.  E  Q    Q     
-------------------------10---------------------|
--8s--10--8--8----------------10---8--7---------|
--7s---9--7--7----------------------------------|
------------------------------------------------|
------------------------------------------------|
------------------------------------------------|


                                     PM PM PM  PM    
  E    E  E  E  H        E  S  S  E  E  E  E   Q     
----------------------------------------------------|
--8s--10--8--8--------------------------------------|
--7s---9--7--7--------------7h-9p-7-----------------|
-------------------------------------9--8--7--------|
----------------------------------------------10----|
----------------------------------------------------|


  E    E  E  E  H         Q    Q    E  E  Q     
-----------------------------------------------|
--8s--10--8--8-----------10----7----8-----7----|
--7s---9--7--7-------------------------7-------|
-----------------------------------------------|
-----------------------------------------------|
-----------------------------------------------|


                        PM   PM PM PM  PM PM  PM PM  
  E    E  E  Q     Q    Q    E  E  E   E  E   E  E   
----------------------------------------------------|
--8s--10--8--8~-------------------------------------|
--7s---9--7-------------7---------------------------|
-----------------------------9--8--7------7------7--|
--------------------------------------10-----10-----|
----------------------------------------------------|


  Q    E  Q     E  E  Q    E  E  E   E  E  E  E   
-------------------------------------------------|
--8-------------------7----7--8-----10-----8-----|
--7----7--9~----7--9--7----7--7--7---7--7--7--7--|
-------------------------------------------------|
-------------------------------------------------|
-------------------------------------------------|


  E  E  E  Q    E  E  E  E  E   E  Q    E   E  E   
--------7-------7--7--------7--10-------7--10-----|
-----8-------------------8------------------------|
--7-----------------------------------------------|
--------------------------------------------------|
--------------------------------------------------|
--------------------------------------------------|


  E  E  E   Q    E  E   Q    E  E   Q.     E  E      E  E  E   Q    E  E  Q    E  E   Q.     E  E   
-------------------------------------------------|------------------------7------------------------|
--8--------10----8-----10----8-----10------8-----|---------8--10----8----------8-----10------8-----|
-----7--------------7-----------7-------------7--|------7--------------7----------7-------------7--|
--------7----------------------------------------|-------------------------------------------------|
-------------------------------------------------|--10---------------------------------------------|
-------------------------------------------------|-------------------------------------------------|


  E  E  E   Q    E  E   Q    E  E   Q.     E  E      Q.     Q.     Q    Q    E   H        E   
-------------------------------------------------|--10--------------------------10-----------|
--8--------10----8-----10----8-----10------------|----------8------7----8--------------------|
-----7--------------7-----------7----------7-----|----------7------7----7----7---------------|
--------7----------------------------------------|-------------------------------------------|
-------------------------------------------------|-------------------------------------------|
-------------------------------------------------|-------------------------------------------|


  E  E  E  Q.      Q.     Q    E  E  Q    E       E   E  E  E  E  E  E  Q    E  E  E  Q    Q      
---------------------------------------------|---------------------------------------------------|
--7--------8------10------8----7--8--7-------|---------------------------------------------------|
--7--7-----7-------9------7----7--7--7-------|--7g9p--7--7--7--9--7--7--7----7--7--7-------------|
--------7------------------------------------|----7----------------------------------------------|
---------------------------------------------|---------------------------------------------x\----|
---------------------------------------------|---------------------------------------------------|


  Q    E  E  Q    E  E  Q    E  E  Q    E  E     Q    E  E  Q    E  E  Q    E  E  Q    E  E   
----------------------------------------------|----------------------------------------------|
----------------------------------------------|----------------------------------------------|
----------------------------------------------|--7----7--7--7----7--7--7----7--7--7----7--7--|
--2----2--2--2----2--2--2----2--2--2----2--2--|--7----7--7--7----7--7--7----7--7--7----7--7--|
--2----2--2--2----2--2--2----2--2--2----2--2--|--5----5--5--5----5--5--5----5--5--5----5--5--|
--0----0--0--0----0--0--0----0--0--0----0--0--|----------------------------------------------|


  Q    E  E  Q    E  E  Q    E  E  Q    E  E   
----------------------------------------------|
----------------------------------------------|
--4----4--4--4----4--4--4----4--4--4----4--4--|
--4----4--4--4----4--4--4----4--4--4----4--4--|
--2----2--2--2----2--2--2----2--2--2----2--2--|
----------------------------------------------|


    Q.       Q      E  Q.        E   E      E   E   E   Q     
-------------------------------------------------------------|
-------------------------------------------------------------|
--3g5------5g7----7g9--9------9g11--11--11g12--12--11--12----|
-------------------------------------------------------------|
-------------------------------------------------------------|
-------------------------------------------------------------|


  Q    E  E  Q    E  E  Q    E  E  Q    E  E     Q    E  E  Q    E  E  Q    E  E  Q    E  E   
----------------------------------------------|----------------------------------------------|
----------------------------------------------|----------------------------------------------|
----------------------------------------------|--7----7--7--7----7--7--7----7--7--7----7--7--|
--2----2--2--2----2--2--2----2--2--2----2--2--|--7----7--7--7----7--7--7----7--7--7----7--7--|
--2----2--2--2----2--2--2----2--2--2----2--2--|--5----5--5--5----5--5--5----5--5--5----5--5--|
--0----0--0--0----0--0--0----0--0--0----0--0--|----------------------------------------------|


  Q    E  E  Q    E  E  Q    E  E  Q    E  E   
----------------------------------------------|
----------------------------------------------|
--4----4--4--4----4--4--4----4--4--4----4--4--|
--4----4--4--4----4--4--4----4--4--4----4--4--|
--2----2--2--2----2--2--2----2--2--2----2--2--|
----------------------------------------------|


    Q.       Q      E  Q.        E   E      E   E   E   Q     
-------------------------------------------------------------|
-------------------------------------------------------------|
--3g5------5g7----7g9--9------9g11--11--11g12--12--11--12----|
-------------------------------------------------------------|
-------------------------------------------------------------|
-------------------------------------------------------------|


  E  E  E  E  E  E  E  E  E  E  E  E  E  E  E  E   
--------------------------------------------------|
--8--8--8--8--8--8--8--8--8--8--8--8--8--8--8--8--|
--7--7--7--7--7--7--7--7--7--7--7--7--7--7--7--7--|
--------------------------------------------------|
--------------------------------------------------|
--------------------------------------------------|


  E  E  E  E  E  E  E  E   E   E   E   E   E   E   E   E   
----------------------------------------------------------|
--7--7--7--7--7--7--7--7--10--10--10--10--10--10--10--10--|
--7--7--7--7--7--7--7--7---7---7---7---7---7---7---7---7--|
----------------------------------------------------------|
----------------------------------------------------------|
----------------------------------------------------------|


  E  E  E  E  E  E  E  E  E  E  E  E  E  E  E  E   
--------------------------------------------------|
--7--7--7--7--7--7--7--7--5--5--5--7--7--7--7--7--|
--7--7--7--7--7--7--7--7--7--7--7--7--7--7--7--7--|
--------------------------------------------------|
--------------------------------------------------|
--------------------------------------------------|


  E  E  E  E   E   E   E   E   E   E   E   E   E   E   Q      
-------------------------------------------------------------|
--8--8--8--8--10--10--10--10--10--10--10--10--10--10--10\----|
--7--7--7--7---7---7---7---7---7---7---7---7---7---7---------|
-------------------------------------------------------------|
-------------------------------------------------------------|
-------------------------------------------------------------|


    E   E   Q     E   E   E   E   E   Q     Q     E   E  E   
------------------------------------------------------------|
--/12--12--12----12--12--12--12--13--13----12----12--12-----|
---12--12--12----12--12--12--12--12--12----12----12--12-----|
------------------------------------------------------------|
------------------------------------------------------------|
------------------------------------------------------------|


   E   E  E   E   E  S  S  E   E   E   E   E   E   E   E   E  E   
-----------------------------------------------------------------|
--12--12-----10--10----10-12--10--13--13--13--12--12--12--12-----|
--12--12-----12--12----12-12--12--12--12--12--12--12--12--12-----|
-----------------------------------------------------------------|
-----------------------------------------------------------------|
-----------------------------------------------------------------|


  T  S. E  E  E  E  E  E  T  S. E  E  E  T   S. E   E   E   E    
----------------------------------------------------------------|
----------------------------------------------------------------|
--5s-7--7--7--7--7--7--7--7s-9--9--9--9--9s-11-11--11--11--11s--|
----------------------------------------------------------------|
----------------------------------------------------------------|
----------------------------------------------------------------|


   H        H         H         H           Q.       Q.      Q.      E     E  Q     E  E  S  S  
-----------------------------------------|-----------------------------------------------------|
---------------------12--------10--------|--7--------8-------7---------------------------------|
--12-------------------------------------|--9b------10b------9b------Lpbr--7--9~----7----------|
-----------------------------------------|---------------------------------------------9--7p-5-|
-----------------------------------------|-----------------------------------------------------|
-----------------------------------------|-----------------------------------------------------|


  E  E  E  E  Q.      H         S  S  S E  E  E.     Q    E  S S E  S S E  H        Q     Q.        
--------------------------------------------------|------------------------------------------------|
--------------------------------------------------|---------------------------------5-----5--------|
--------------------------------------------------|---------------------------------7b----7pb------|
--7--5--7--5--7b------7~--------5h-7p-5-----------|---------------------0--------------------------|
----------------------------------------7--5--7---|--------------0--0-2----------------------------|
--------------------------------------------------|--3-------0-3-----------------------------------|


  Q.     E    Q      E  E  E   E    Q      Q    Q     
-------------------------------------------5---------|
---------5----5------------5---5----5------8----x----|
---------7pb--7pb----4--7--7b--7pb--7pb---------x----|
-----------------------------------------------------|
-----------------------------------------------------|
-----------------------------------------------------|


   E.    E.    Q      S   S  E   S S  E.    Q     S  E  S  E.   E   
--------------------------------15---15b---15b----L-15----17---17--|
--15b---15b---15b----15s-17-17-------------------------------------|
-------------------------------------------------------------------|
-------------------------------------------------------------------|
-------------------------------------------------------------------|
-------------------------------------------------------------------|


                               NH    NH    NH           
   E.    E.    E   Q    Q      E.    E.    Q    Q.      
--17b---17b---17--17-----------------------------------|
-----------------------------<>7-----------------------|
-----------------------------------<>7-----------------|
-----------------------------------------<>7-----------|
-------------------------------------------------------|
-------------------------------------------------------|


           |---3--|  |--3--|                                
   Q    E  E  E   E  E  E  E   E  S  E   E.  E  Q    E  E   
-----------------------------------------------------------|
-----------------------------------------------------------|
---------------------------7~--L--7h-9p--7---6--7----6-----|
---------------------7--9-------------------------------7--|
--/7-------7--9--10----------------------------------------|
-----------------------------------------------------------|


                                             tr                                  
  |----3----|     |-----3----|                                                   
  Q    Q    Q     Q    Q     Q     H         H                H.           Q     
----------------------------------------------------------|---------------------|
--8----7----8----10----8----10----12--------15(15)--------|--15-----------------|
--7----7----7-----9----7-----9----11----------------------|---------------------|
----------------------------------------------------------|---------------------|
----------------------------------------------------------|---------------------|
----------------------------------------------------------|---------------------|


  W                Q.     Q.     Q       W                Q.     Q.     Q     
-------------------3------------------|-------------------3------------------|
--------------------------3-----------|--------------------------3-----------|
--5-----------------------------------|--------------------------------------|
--5-----------------------------------|--5-----------------------------------|
--3-----------------------------------|--5-----------------------------------|
--------------------------------------|--3-----------------------------------|


  W                Q.     Q.     Q       W                Q.     Q.     Q     
-------------------3------------------|--------------------------------------|
--------------------------3-----------|--------------------------------------|
--5-----------------------------------|--9----------------9------------------|
--5-----------------------------------|--9-----------------------9-----------|
--3-----------------------------------|--7-----------------------------------|
--------------------------------------|--------------------------------------|


  W                E  Q    E  Q    Q     
----------------------------------------|
----------------------------------------|
--7-------------------9-------7---------|
--7----------------9-------9------------|
--5-------------------------------------|
----------------------------------------|


    NH   NH   NH    NH   NH   NH   NH                        
    E    E    E     E    E    E    E  E  H         H         
------------------------------------------------------------|
-----------------<>12---------------------------------------|
--<>7--<>7-------------<>7--<>7--<>7------------------------|
--<>7-------<>7--------------------------x\-----------------|
------------------------------------------------------------|
------------------------------------------------------------|


  Q    E  E  Q    E  E  Q    E  E  Q    E  E     Q    E  E  Q    E  E  Q    E  E  Q    E  E   
----------------------------------------------|----------------------------------------------|
----------------------------------------------|----------------------------------------------|
----------------------------------------------|--8----8--8--8----8--8--8----8--8--8----8--8--|
--3----3--3--3----3--3--3----3--3--3----3--3--|--8----8--8--8----8--8--8----8--8--8----8--8--|
--3----3--3--3----3--3--3----3--3--3----3--3--|--6----6--6--6----6--6--6----6--6--6----6--6--|
--1----1--1--1----1--1--1----1--1--1----1--1--|----------------------------------------------|


  Q    E  E  Q    E  E  Q    E  E  Q    E  E   
----------------------------------------------|
----------------------------------------------|
--5----5--5--5----5--5--5----5--5--5----5--5--|
--5----5--5--5----5--5--5----5--5--5----5--5--|
--3----3--3--3----3--3--3----3--3--3----3--3--|
----------------------------------------------|


    Q.       Q      E  Q.       E  E   E   E  E   Q     
-------------------------------------------------------|
-------------------------------------------------------|
--1g3------3g5----5g6--6------6g8--8--10--10--8--10----|
-------------------------------------------------------|
-------------------------------------------------------|
-------------------------------------------------------|


  Q    E  E  Q    E  E  Q    E  E  Q    E  E     Q    E  Q    Q     Q    E  E  Q    Q    E   
----------------------------------------------|---------------------------------------------|
----------------------------------------------|----------9---------11-------9--8----8-------|
----------------------------------------------|--8----8-------8----------8------------------|
--3----3--3--3----3--3--3----3--3--3----3--3--|---------------------------------------------|
--3----3--3--3----3--3--3----3--3--3----3--3--|---------------------------------------------|
--1----1--1--1----1--1--1----1--1--1----1--1--|---------------------------------------------|


                                              3    3      3                            
  W                 W                    Q    Q    Q.     H        Q    Q    H         
--------------------------------------|-----------------------------------------------|
--------------------8-----------------|-----------------------------------------------|
-------------------10b----------------|--6---------6------6--------8----6----5--------|
--------------------------------------|-----------------------------------------------|
--------------------------------------|-----------------------------------------------|
--------------------------------------|-----------------------------------------------|


  E  E  E  E  E  E  E  E  E  E  E  E  E  E  E  E   
--------------------------------------------------|
--9-----9-----9-----9-----9-----9-----9-----9-----|
-----8-----8-----8-----8-----8-----8-----8-----8--|
--------------------------------------------------|
--------------------------------------------------|
--------------------------------------------------|


  E  E  E  E  E  E  E  E   E  E   E  E   E  E   E  E   
------------------------------------------------------|
--8-----8-----8-----8-----11-----11-----11-----11-----|
-----8-----8-----8-----8------8------8------8------8--|
------------------------------------------------------|
------------------------------------------------------|
------------------------------------------------------|


  E  E  E  E  E  E  E  E  E  E  E  E  Q    Q     
------------------------------------------------|
--8-----8-----8-----8-----9-----9-----8----9----|
-----8-----8-----8-----8-----8------------------|
------------------------------------------------|
------------------------------------------------|
------------------------------------------------|


   Q    E  Q    E  E  E   Q    E   E   E   E  E   E   
-------------------------11-------11--11--11-----11--|
--11-------9----------9------------------------------|
---8-------8-------8---------------------------------|
-----------------------------------------------------|
-----------------------------------------------------|
-----------------------------------------------------|


   E   E  E  E  E  E  E  E  E  E  E  Q.     E  E   
--11--11--9--9--8--8------------------------------|
----------------------9--9--8--8-----9---------9--|
--------------------------------------------------|
--------------------------------------------------|
--------------------------------------------------|
--------------------------------------------------|


   E   E  E  E  E  E  E  E     E   E   E    H        E   
--11--11--9--9--8--8------------------------------------|
----------------------9--9--9g11--13--13b--13-----------|
--------------------------------------------------------|
--------------------------------------------------------|
--------------------------------------------------------|
--------------------------------------------------------|


  S   E.   E  E    E   E  E    E   E  E    E   E   E   E   E   E   
--8s-11---11--8s--11--11--8s--11--11--8s--11--11--11--11--11--11--|
------------------------------------------------------------------|
------------------------------------------------------------------|
------------------------------------------------------------------|
------------------------------------------------------------------|
------------------------------------------------------------------|


   E   E   E   E   E   E   E   E   E   E   E   E   E   E   E   E   
------------------------------------------------------------------|
--------------------------------------------------11--11--11--11--|
--10--10--10--10--12--12--12--12--13--13--13--13------------------|
------------------------------------------------------------------|
------------------------------------------------------------------|
------------------------------------------------------------------|


  E  E  E   E  E  E   E  E   E  E   E   E  E   E  E  E   
----------------------------11-----11-------------------|
--8--9--9--11-----9--11--9--11-----11--11-----11--9-----|
--8--8--8---8-----8---8--8--------------8------8--8-----|
--------------------------------------------------------|
--------------------------------------------------------|
--------------------------------------------------------|


  E  E  E   Q    E   E  E   E   E   E   E   E  E  E  E   
---------------------------11--11--11-------------------|
--8--9--9--11----9--11--9--11--11--11--11--11--9--9-----|
--8--8--8---8----8---8--8---------------8---8--8--8-----|
--------------------------------------------------------|
--------------------------------------------------------|
--------------------------------------------------------|


  E  E  E   E  E  E   E  E   E  E   E  E   E   E   E  E   
----------------------------11-----11-----11--11--11-----|
--8--9--9--11-----9--11--9--11-----11-----11--11--11-----|
--8--8--8---8-----8---8--8-------------------------------|
---------------------------------------------------------|
---------------------------------------------------------|
---------------------------------------------------------|


      E   E   E   E   E   E   E   E   E   E  E   Q       E   E  E   
--11g13--13--11--11------------------------------------------------|
---------------------11--11----------------------------------------|
-----------------------------13--13--12--13------------------------|
------------------------------------------------13br----13--13-----|
-------------------------------------------------------------------|
-------------------------------------------------------------------|


  E  E  E   E  E  E   E  E   E   E   E   E   E   E   E  E   
----------------------------11--11--11--11--11--11--11-----|
--8--9--9--11-----9--11--9---------------9---8---8---9-----|
--8--8--8---8-----8---8--8---------------8---8---8---8--8--|
-----------------------------------------------------------|
-----------------------------------------------------------|
-----------------------------------------------------------|


  E  E  E   E  E  E  E  S  S  E  E   E  E  E  E  E  E   
-------------------------------------------------------|
--8--9--9--11-----9-----8h-9p-8---------8--9-----9-----|
--8--8--8---8-----8--------------8--10--------8-----8--|
-------------------------------------------------------|
-------------------------------------------------------|
-------------------------------------------------------|


  E   Q    E   Q    E  E  E  E  E  E  E  E  E  E   
-----------------------9--9--8--8-----------------|
--9--11----9--11----9--------------8--9--8--9-----|
--8---8----8---8----8--------------8--8--8--8-----|
--------------------------------------------------|
--------------------------------------------------|
--------------------------------------------------|


  E  E  E   E   E  E   E  E   Q     Q     E   E   E   E   
-----------------------------11----11----11--11--11\-----|
--9--9--9--11--11--9--11--9------------------------------|
--8--8--8---8---8--8---8--8------------------------------|
---------------------------------------------------------|
---------------------------------------------------------|
---------------------------------------------------------|


  E    E   E  Q    E   Q     E  E   E   Q     E  Q     
----------------------------11-----11-----------------|
--9s--11s--9--9----9--11---------------11----11--9----|
--8s--10s--8--8----8--10---------------10----10--8----|
------------------------------------------------------|
------------------------------------------------------|
------------------------------------------------------|


  E    E   E  Q    E   Q     E  E   S   S   Q     E   Q     
----------------------------11-----11s-13s-11--------------|
--9s--11s--9--9----9--11----11-----11s-13s-11----11s--9----|
--8s--10s--8--8----8--10-------------------------10s--8----|
-----------------------------------------------------------|
-----------------------------------------------------------|
-----------------------------------------------------------|


  E    E   E  Q    E   Q     E  E   E   Q     E  Q     
----------------------------11-----11-----------------|
--9s--11s--9--9----9--11----11-----11--11----11--9----|
--8s--10s--8--8----8--10---------------10----10--8----|
------------------------------------------------------|
------------------------------------------------------|
------------------------------------------------------|


  E    E   E  Q    S   S E  Q    S   S E  E  E   E  E  E    
----------------------------------------------------------||
--9s--11s--9--9-------------------------------------------||
--8s--10s--8--8----8s-10-8--8-----------------------------||
-------------------8s-10-8--8----8s-10-8--8--8p--6--6--6--||
---------------------------------8s-10-8--8--8p--6--6--6--||
----------------------------------------------------------||

Tap to rate this tab
 
# A B C D E F G H I J K L M N O P Q R S T U V W X Y Z