Angel Dust - Follow Me Part 2 tab

Angel Dust - Follow Me (Part 2)


Tuning: Half Step Down

Key:

h= hammer-on
p= pull-off
(x)/= slide up from x
#= sharp
b= flat
/\/\/= Tremelo or Vibrato

Acoustic Intro (Arpeggio, Em based i'm guessing...)

*Note: Tremelo is probably reverb effect, but you can improvise with
 extra hammer-on or bending in given "/\/\/" sections.

d#--------------------------------------7h8p7/\/\/-----------|
Bb-----------7h9p7/\/\/-------7-----7-8----------------------|
F#---------9----------------9---9-7--------------------------|
C#-------9---------------------------------------------------|
Ab--7h10-----------------------------------------------------|
D#-----------------------------------------------------------|

d#--7-8-10-8-7h8p7h8p7h8p8/\/\/-----|
Bb----------------------------------|
F#----------------------------------|
C#----------------------------------|
Ab----------------------------------|
D#----------------------------------|

d#----7--------------------------------|
Bb--8---10-8---(7)/8-7-------8---------|
F#---------------------9-7-9---9/\/\/--|
C#-------------------------------------|
Ab-------------------------------------|
D#-------------------------------------|

Constructed by Master James. Enjoy!
Tap to rate this tab
 
# A B C D E F G H I J K L M N O P Q R S T U V W X Y Z