Song name
# A B C D E F G H I J K L M N O P Q R S T U V W X Y Z

Angel Olsen - Some Things Cosmic tab

Angel Olsen - Some things cosmic
Tuning - Standard
Tabbed by Blake Harrison

Intro

E|-----------0-----------0-----------0-----------0--|
B|-----5-----------5-----------5-----------5--------|
G|--------6-----------6-----------6-----------6-----|
D|--7-----------7-----------6-----------6-----------|
A|--------------------------------------------------|
E|--------------------------------------------------|

E|-----------0-----------0-----------0-----------0--|
B|-----5-----------5-----------5-----------5--------|
G|--------6-----------6-----------6-----------6-----|
D|--5-----------5-----------5-----------5-----------|
A|--------------------------------------------------|
E|--------------------------------------------------|

E|-----------0-----------0-----------0-----------0--|
B|-----3-----------3-----------3-----------3--------|
G|--------4-----------4-----------1-----------1-----|
D|--4-----------4-----------2-----------2-----------|
A|--------------------------------------------------|
E|--------------------------------------------------|

E|-----------0-----------0-----------0-----------0-----------0-----------0-|
B|-----5-----------5-----------3-----------3-----------3-----------3-------|
G|--------6-----------6-----------1-----------1-----------1----------1-----|
D|--7-----------7-----------2-----------2-----------2-----------2----------|
A|-------------------------------------------------------------------------|
E|-------------------------------------------------------------------------|


Verse

Before we draw
E|-----------0-----------0-----------0-----------0--|
B|-----5-----------5-----------5-----------5--------|
G|--------6-----------6-----------6-----------6-----|
D|--7-----------7-----------6-----------6-----------|
A|--------------------------------------------------|
E|--------------------------------------------------|

My dear dear friend
E|-----------0-----------0-----------0-----------0--|
B|-----5-----------5-----------5-----------5--------|
G|--------6-----------6-----------6-----------6-----|
D|--5-----------5-----------5-----------5-----------|
A|--------------------------------------------------|
E|--------------------------------------------------|

I promise you my
E|-----------0-----------0-----------0-----------0--|
B|-----3-----------3-----------3-----------3--------|
G|--------4-----------4-----------1-----------1-----|
D|--4-----------4-----------2-----------2-----------|
A|--------------------------------------------------|
E|--------------------------------------------------|

word
E|-----------0-----------0-----------0-----------0-----------0-----------0-|
B|-----5-----------5-----------3-----------3-----------3-----------3-------|
G|--------6-----------6-----------1-----------1-----------1----------1-----|
D|--7-----------7-----------2-----------2-----------2-----------2----------|
A|-------------------------------------------------------------------------|
E|-------------------------------------------------------------------------|

If we should part
E|-----------0-----------0-----------0-----------0--|
B|-----5-----------5-----------5-----------5--------|
G|--------6-----------6-----------6-----------6-----|
D|--7-----------7-----------6-----------6-----------|
A|--------------------------------------------------|
E|--------------------------------------------------|

My dear dear love, you
E|-----------0-----------0-----------0-----------0--|
B|-----5-----------5-----------5-----------5--------|
G|--------6-----------6-----------6-----------6-----|
D|--5-----------5-----------5-----------5-----------|
A|--------------------------------------------------|
E|--------------------------------------------------|

Know youíre in my
E|-----------0-----------0-----------0-----------0--|
B|-----3-----------3-----------3-----------3--------|
G|--------4-----------4-----------1-----------1-----|
D|--4-----------4-----------2-----------2-----------|
A|--------------------------------------------------|
E|--------------------------------------------------|

heart
E|-----------0-----------0-----------0-----------0-----------0-----------0-|
B|-----5-----------5-----------3-----------3-----------3-----------3-------|
G|--------6-----------6-----------1-----------1-----------1----------1-----|
D|--7-----------7-----------2-----------2-----------2-----------2----------|
A|-------------------------------------------------------------------------|
E|-------------------------------------------------------------------------|

Chorus

And though I may be getting older
E|-----------0-----------0-----------7-----------7--|
B|-----5-----------5-----------6-----------6--------|
G|--------6-----------6-----------7-----------7-----|
D|--7-----------7-----------0-----------0-----------|
A|--------------------------------------------------|
E|--------------------------------------------------|

Know that iím going with you
E|-----------0-----------0-----------7-----------7--|
B|-----5-----------5-----------6-----------6--------|
G|--------6-----------6-----------7-----------7-----|
D|--7-----------7-----------0-----------0-----------|
A|--------------------------------------------------|
E|--------------------------------------------------|

Know that iím hanging on
E|-----------0-----------0-----------7-----------7--|
B|-----5-----------5-----------6-----------6--------|
G|--------6-----------6-----------7-----------7-----|
D|--7-----------7-----------0-----------0-----------|
A|--------------------------------------------------|
E|--------------------------------------------------|

to the things that you said
E|-----------0-----------0-----------0-----------0--|
B|-----5-----------5-----------3-----------3--------|
G|--------6-----------6-----------1-----------1-----|
D|--7-----------7-----------2-----------2-----------|
A|--------------------------------------------------|
E|--------------------------------------------------|

The things that you said
E|-----------0-----------0-----------0-----------0-----------0-----------0--|
B|-----5-----------5-----------3-----------3-----------3-----------3--------|
G|--------6-----------6-----------1-----------1-----------1-----------1-----|
D|--7-----------7-----------2-----------2-----------2-----------2-----------|
A|--------------------------------------------------------------------------|
E|--------------------------------------------------------------------------|

Verse

Iíve felt my sole
E|-----------0-----------0-----------0-----------0--|
B|-----5-----------5-----------5-----------5--------|
G|--------6-----------6-----------6-----------6-----|
D|--7-----------7-----------6-----------6-----------|
A|--------------------------------------------------|
E|--------------------------------------------------|

Running from my body, when I
E|-----------0-----------0-----------0-----------0--|
B|-----5-----------5-----------5-----------5--------|
G|--------6-----------6-----------6-----------6-----|
D|--5-----------5-----------5-----------5-----------|
A|--------------------------------------------------|
E|--------------------------------------------------|

Look into your blue
E|-----------0-----------0-----------0-----------0--|
B|-----3-----------3-----------3-----------3--------|
G|--------4-----------4-----------1-----------1-----|
D|--4-----------4-----------2-----------2-----------|
A|--------------------------------------------------|
E|--------------------------------------------------|

eyes
E|-----------0-----------0-----------0-----------0-----------0-----------0-|
B|-----5-----------5-----------3-----------3-----------3-----------3-------|
G|--------6-----------6-----------1-----------1-----------1----------1-----|
D|--7-----------7-----------2-----------2-----------2-----------2----------|
A|-------------------------------------------------------------------------|
E|-------------------------------------------------------------------------|

If cosmic force
E|-----------0-----------0-----------0-----------0--|
B|-----5-----------5-----------5-----------5--------|
G|--------6-----------6-----------6-----------6-----|
D|--7-----------7-----------6-----------6-----------|
A|--------------------------------------------------|
E|--------------------------------------------------|

Is real at all
E|-----------0-----------0-----------0-----------0--|
B|-----5-----------5-----------5-----------5--------|
G|--------6-----------6-----------6-----------6-----|
D|--5-----------5-----------5-----------5-----------|
A|--------------------------------------------------|
E|--------------------------------------------------|

Itís come between you and
E|-----------0-----------0-----------0-----------0--|
B|-----3-----------3-----------3-----------3--------|
G|--------4-----------4-----------1-----------1-----|
D|--4-----------4-----------2-----------2-----------|
A|--------------------------------------------------|
E|--------------------------------------------------|

I....
E|-----------0-----------0-----------0-----------0-----------0-----------0-|
B|-----5-----------5-----------3-----------3-----------3-----------3-------|
G|--------6-----------6-----------1-----------1-----------1----------1-----|
D|--7-----------7-----------2-----------2-----------2-----------2----------|
A|-------------------------------------------------------------------------|
E|-------------------------------------------------------------------------|

Chorus

I want to be naked
E|-----------0-----------0-----------7-----------7--|
B|-----5-----------5-----------6-----------6--------|
G|--------6-----------6-----------7-----------7-----|
D|--7-----------7-----------0-----------0-----------|
A|--------------------------------------------------|
E|--------------------------------------------------|

I donít need my body
E|-----------0-----------0-----------7-----------7--|
B|-----5-----------5-----------6-----------6--------|
G|--------6-----------6-----------7-----------7-----|
D|--7-----------7-----------0-----------0-----------|
A|--------------------------------------------------|
E|--------------------------------------------------|

I donít need my body
E|-----------0-----------0-----------7-----------7--|
B|-----5-----------5-----------6-----------6--------|
G|--------6-----------6-----------7-----------7-----|
D|--7-----------7-----------0-----------0-----------|
A|--------------------------------------------------|
E|--------------------------------------------------|

Iím floating away
E|-----------0-----------0-----------0-----------0--|
B|-----5-----------5-----------3-----------3--------|
G|--------6-----------6-----------1-----------1-----|
D|--7-----------7-----------2-----------2-----------|
A|--------------------------------------------------|
E|--------------------------------------------------|

Iím floating away
E|-----------0-----------0-----------0-----------0--|
B|-----5-----------5-----------3-----------3--------|
G|--------6-----------6-----------1-----------1-----|
D|--7-----------7-----------2-----------2-----------|
A|--------------------------------------------------|
E|--------------------------------------------------|

Iím floating away
E|-----------0-----------0-----------0-----------0-----------0-----------0--|
B|-----5-----------5-----------3-----------3-----------3-----------3--------|
G|--------6-----------6-----------1-----------1-----------1-----------1-----|
D|--7-----------7-----------2-----------2-----------2-----------2-----------|
A|--------------------------------------------------------------------------|
E|--------------------------------------------------------------------------|

Outro

E|-----------0-----------0-----------0-----------0--|
B|-----5-----------5-----------5-----------5--------|
G|--------6-----------6-----------6-----------6-----|
D|--7-----------7-----------6-----------6-----------|
A|--------------------------------------------------|
E|--------------------------------------------------|

E|-----------0-----------0-----------0-----------0--|
B|-----5-----------5-----------5-----------5--------|
G|--------6-----------6-----------6-----------6-----|
D|--7-----------7-----------6-----------6-----------|
A|--------------------------------------------------|
E|--------------------------------------------------|

E|-----------0-----------0-----------0-----------0---|
B|-----5-----------5-----------3-----------3---------|
G|--------6-----------6-----------4-----------4------|
D|--5-----------5-----------4----------4-------------|
A|---------------------------------------------------|
E|---------------------------------------------------|

E|-----------0-----------0-----------0-----------0--|
B|-----3-----------3-----------3-----------3--------|
G|--------1-----------1-----------1-----------1-----|
D|--2-----------2-----------2-----------2-----------|
A|--------------------------------------------------|
E|--------------------------------------------------|

E|-----------0-----------0-----------0-----------0--|
B|-----5-----------5-----------5-----------5--------|
G|--------6-----------6-----------6-----------6-----|
D|--7-----------7-----------6-----------6-----------|
A|--------------------------------------------------|
E|--------------------------------------------------|

E|-----------0-----------0-----------0-----------0--|
B|-----5-----------5-----------5-----------5--------|
G|--------6-----------6-----------6-----------6-----|
D|--7-----------7-----------6-----------6-----------|
A|--------------------------------------------------|
E|--------------------------------------------------|

E|-----------0-----------0-----------0-----------0--|
B|-----5-----------5-----------5-----------5--------|
G|--------6-----------6-----------6-----------6-----|
D|--7-----------7-----------6-----------6-----------|
A|--------------------------------------------------|
E|--------------------------------------------------|

E|-----------0-----------0-----------0-----------0---|
B|-----3-----------3-----------3-----------3---------|
G|--------4-----------4-----------4-----------4------|
D|--4-----------4-----------4----------4-------------|
A|---------------------------------------------------|
E|---------------------------------------------------|

E|-----------0-----------0-----------0-----------0--|
B|-----3-----------3-----------3-----------3--------|
G|--------1-----------1-----------1-----------1-----|
D|--2-----------2-----------2-----------2-----------|
A|--------------------------------------------------|
E|--------------------------------------------------|

E|-----------7-----------7-----------7-----------7--|
B|-----6-----------6-----------6-----------6--------|
G|--------7-----------7-----------7-----------7-----|
D|--0-----------0-----------0-----------0-----------|
A|--------------------------------------------------|
E|--------------------------------------------------|

E|-----------0-----------0-----------0-----------0--|
B|-----5-----------5-----------5-----------5--------|
G|--------6-----------6-----------6-----------6-----|
D|--7-----------7-----------6-----------6-----------|
A|--------------------------------------------------|
E|--------------------------------------------------|

E|-----------7-----------7-----------7-----------7--|
B|-----6-----------6-----------6-----------6--------|
G|--------7-----------7-----------7-----------7-----|
D|--0-----------0-----------0-----------0-----------|
A|--------------------------------------------------|
E|--------------------------------------------------|

E|-----------0-----------0-----------0-----------0--|
B|-----5-----------5-----------5-----------5--------|
G|--------6-----------6-----------6-----------6-----|
D|--7-----------7-----------6-----------6-----------|
A|--------------------------------------------------|
E|--------------------------------------------------|

E|-----------0-----------0-----------0-----------0--|
B|-----5-----------5-----------5-----------5--------|
G|--------6-----------6-----------6-----------6-----|
D|--7-----------7-----------6-----------6-----------|
A|--------------------------------------------------|
E|--------------------------------------------------|

E|-----------0-----------0-----------0-----------0---|
B|-----3-----------3-----------3-----------3---------|
G|--------4-----------4-----------4-----------4------|
D|--4-----------4-----------4----------4-------------|
A|---------------------------------------------------|
E|---------------------------------------------------|

E|-----------0-----------0-----------0-----------0-----------0-|
B|-----3-----------3-----------3-----------3-----------5-------|
G|--------1-----------1-----------1-----------1-----------6----|
D|--2-----------2-----------2-----------2-----------7----------|
A|-------------------------------------------------------------|
E|-------------------------------------------------------------|
Tap to rate this tab
# A B C D E F G H I J K L M N O P Q R S T U V W X Y Z