Song name
# A B C D E F G H I J K L M N O P Q R S T U V W X Y Z

Angel Olsen - Drunk And With Dreams tab

Angel Olsen - Drunk and with dreams
Tuning  Standard
Tabbed by Blake Harrison

Intro

E|-----------------------------------------------------------------|
B|--------5--------5-------5-------7--------7--------7--------7--7-|
G|---6---------6--------6-------6--------6--------6--------6-----7-|
D|-7---7----7---7----7---7----7---7----7---7----7---7----7---7---6-|
A|---------------------------------------------------------------7-|
E|-----------------------------------------------------------------|

E|---------------------------------------------------------|
B|-7----7-------------7-------------7-------------7--------|
G|-7-------7-------------7-------------7-------------7-----|
D|-6----------6-------------6-------------6-------------6--|
A|-7--7-------------7--------------7------------7----------|
E|---------------------------------------------------------|

E|----------------------------------------------------------|
B|--5--55-6-7--77-6-5-55-6-7-77-6-5---5h7-7-7-5-5h7--7-7-5--|
G|--6--66-6-6--66-6-6-66-6-6-66-6-6---6---6-6-6-6----6-6-6--|
D|--7--77-7-7--77-7-7-77-7-7-77-7-7---7---7-7-7-7----7-7-7--|
A|--0--00-0-0--00-0-0-00-0-0-00-0-0---0---0-0-0-0----0-0-0--|
E|----------------------------------------------------------|

E|---------------------------------------------|
B|--0h7-7-7-0-0h7-7-7-0---5h7-7-7-5-5h7-7-7-5--|
G|--7---7-7-7-7---7-7-7----6--6-6-6--6--6-6-6--|
D|--6---6-6-6-6---6-6-6----7--7-7-7--7--7-7-7--|
A|--7---7-7-7-7---7-7-7----0--0-0-0--0--0-0-0--|
E|---------------------------------------------|

E|---------------------------------------------|
B|--0h7-7-7-0-0h7-7-7-0---5h7-7-7-5-5h7-7-7-5--|
G|--7---7-7-7-7---7-7-7----6--6-6-6--6--6-6-6--|
D|--6---6-6-6-6---6-6-6----7--7-7-7--7--7-7-7--|
A|--7---7-7-7-7---7-7-7----0--0-0-0--0--0-0-0--|
E|---------------------------------------------|

E|--7-7-7-7-7-7-7-7-7-7-7-7------------------------|
B|--6-6-6-6-6-6-6-6-6-6-6-6---5h7-7-7-5-5h7-7-7-5--|
G|--7-7-7-7-7-7-7-7-7-7-7-7----6--6-6-6--6--6-6-6--|
D|--0-0-0-0-0-0-0-0-0-0-0-0----7--7-7-7--7--7-7-7--|
A|-----------------------------0--0-0-0--0--0-0-0--|
E|-------------------------------------------------|

E|-----------------|
B|--0-0-0-0-0-0-7--|
G|--7-7-7-7-7-7-7--|
D|--6-6-6-6-6-6-6--|
A|--7-7-7-7-7-7-7--|
E|-----------------|

Verse + Chorus

E|--------------------------------------|
B|--5-5-5-5-7-7-7-7----0-0-0-0-7-7-7-7--|
G|--6-6-6-6-6-6-6-6----7-7-7-7-7-7-7-7--|
D|--7-7-7-7-7-7-7-7----6-6-6-6-6-6-6-6--|
A|--0-0-0-0-0-0-0-0----7-7-7-7-7-7-7-7--|
E|--------------------------------------|

This continues for the rest of the song with some slight variations.
Tap to rate this tab
 
# A B C D E F G H I J K L M N O P Q R S T U V W X Y Z