Song name
# A B C D E F G H I J K L M N O P Q R S T U V W X Y Z

Angel Taylor - Like You Do chords

Highlighted       Show chord diagrams
Like You Do
Artist: Angel Taylor
Album: Love Travels

tabbed from: 
http://www.youtube.com/watch?v=gz31pjmWeAw and http://www.youtube.com/watch?v=0DRlCwVEHrM

Contributor: Daniel Schnall

Tuning: Capo 3 (all chords relative to capo)

Intro/Verse
e|--3---2---0---3--|
B|--3---3---1---3--|
G|--0---2---2---0--|
D|--0---0---2---2--|
A|--2-------0---3--|
E|--3--------------|
    G   D   Am  C9

Pre-Chorus
e|--0---2---0---3--|
B|--1---3---1---3--|
G|--2---2---2---0--|
D|--2---0---2---2--|
A|--0-------0---3--|
E|-----------------|
    Am  D  Am  C9

Chorus
e|--3---2---0---3--|
B|--3---3---1---3--|
G|--0---2---2---0--|
D|--0---0---2---2--|
A|--2-------0---3--|
E|--3--------------|
    G   D   Am  C9

Bridge (after second Chorus)
e|------------------|
B|--8--7--6--5------|
G|--6--5--4--3---2--|
D|--8--7--6--5---0--|
A|--7--6--5--4---2--|
E|---------------0--|
Tap to rate this tab
 
# A B C D E F G H I J K L M N O P Q R S T U V W X Y Z