Angel Taylor - Spinning Wheels tab

-----------------------------------------------------------------------------
			     Spinning Wheels – Angel Taylor
-----------------------------------------------------------------------------
Tabbed by: Yanii Marie
Email: holton.aiyana@gmail.com or aholton@sprint.blackberry.net

Tuning:

e|----------------|----------------|----------------|-------|----------|
B|--------3-------|--------3-------|--------0-------|-----0-|-----0----|
G|------0---0---0-|------0---0---0-|------0---0---0-|---0---|---0-----0|
D|----0-------0---|----0-------0---|----0-------0---|-4-----|-2-----0--|
A|----------------|----------------|----------------|-------|----------|
E|-3--------------|-2--------------|-0--------------|-------|----------|
^^Repeat twice for intro.

Verse:

e|----------------|----------------|----------------|-------|----------|
B|--------3-------|--------3-------|--------0-------|-----0-|-----0----|
G|------0---0---0-|------0---0---0-|------0---0---0-|---0---|---0-----0|
D|----0-------0---|----0-------0---|----0-------0---|-4-----|-2-----0--|(x3)
A|----------------|----------------|----------------|-------|----------|
E|-3--------------|-2--------------|-0--------------|-------|----------|

e|----------------|----------------|----------------------|
B|--------3-------|--------3-------|--------0-----0-----0-|
G|------0---0---0-|------0---0---0-|------0-----0-----0---|
D|----0-------0---|----0-------0---|----0-----0-----0-----|
A|----------------|----------------|----------------------|
E|-3--------------|-2--------------|-0--------------------|

  Pre-Chorus
e|-3---3---3---3---|
B|-3---3---3---3---|
G|-0---0---0---0---|Starts at “Love, will you try to slow down?”
D|-2---0---0---2---|
A|-2---0---2---3---|
E|-----2---3-------|


Chorus
e|-3---3---3---0-|
B|-3---3---3---3-|
G|-0---0---0---4-|Starts at “Break down, turn around..”
D|-2---0---2---5-|
A|-3---2---2-----|
E|-----3---------|


Do intro riff one time right after the last chord, when she says “spinning wheels.” Then 
continue through the 2nd verse with that riff.


I'm sorry if that got a bit confusing. Post a comment or email me for any clarifications 
needed (:
Tap to rate this tab
 
# A B C D E F G H I J K L M N O P Q R S T U V W X Y Z