Song name
# A B C D E F G H I J K L M N O P Q R S T U V W X Y Z

Angel Villoldo - El Choclo tab

Well I had only transcribed this part beacause it's a very difficult tango and I don't 
to just copy and paste any other version except mine, so I hope you enjoy this part. Soon 
add the rest of the song.

e:-------------------11-0--000-55-00-----------------------------11-0-000---|
B:----------------11-----------------11-3-1-0-----------------11------------|
G:------------222-----------------------------------------222---------------|
D:--222-33-2------------------------------------222-33-2--------------------|
A:--------------------------------------------------------------------------|
E:--------------------------------------------------------------------------|

e:77-44-00----------------------------11-0--000-55-00--------0-3-1----------|
B:----------11-3-1-0---------------11-----------------3-22-3----------------|
G:-----------------------------222------------------------------------------|
D:--------------------222-33-2----------------------------------------------|
A:--------------------------------------------------------------------------|
E:--------------------------------------------------------------------------|
Tap to rate this tab
# A B C D E F G H I J K L M N O P Q R S T U V W X Y Z