Song name
# A B C D E F G H I J K L M N O P Q R S T U V W X Y Z

Angelas Dish - Lock You Out tab

Song:Lock You Out
Band:Angelas Dish
Album:My Body Is An Ashtray EP
Band Website: http://angelasdish.com/
Pic colour:orange


Alright this is a awesome song of angelas dish's my body is an ashtray. Yeah its great 
to play. So yeah this sounds 100% too me. For timing and all that just listen to the song 
you should know and yeah . enjoy .

Tuning :Standard Tuning EADGBe

IntrO:

e|-------0-------0--------0-------0-------0-------0-------0------0----|
B|-----0---0---0---0----0---0---0---0---0---0---0---0---0---0--0---0--|
G|---2--------2-------2--------2-------2-------1-------4------4-------|
D|--------------------------------------------------------------------|
A|--------------------------------------------------------------------|
E|--------------------------------------------------------------------|

e|------0-------0--------0-------0-------------------------|
B|----0---0---0---0----0---0---0---0-----------------------|
G|--9-------8--------4--------4----------------------------|
D|---------------------------------------------------------|
A|---------------------------------------------------------|
E|---------------------------------------------------------|


VersE:


e|----0-------0-------0-------0-------0-------0------0-------0----|
B|--0---0---0---0---0---0---0---0---0---0---0---0--0---0---0---0--|
G|-2------1-------2--------4-------9-------8------6------4--------|
D|----------------------------------------------------------------|
A|----------------------------------------------------------------|
E|----------------------------------------------------------------|

e|-----0-------0-------0-------0-------0-------0-------0-------0----|
B|---0---0---0---0---0---0---0---0---0---0---0---0---0---0---0---0--|
G|-2-------1-------4-------4-------9-------8-------4-------4--------|
D|------------------------------------------------------------------|
A|------------------------------------------------------------------|
E|------------------------------------------------------------------|

you play that bit^  twice then the second guitar comes in which is when you play this under it

e|-----0-------0-------0-------0-------0-------0-------0-------0----|
B|---0---0---0---0---0---0---0---0---0---0---0---0---0---0---0---0--|
G|-2-------1-------4-------4-------9-------8-------4-------4--------|
D|------------------------------------------------------------------|
A|------------------------------------------------------------------|
E|------------------------------------------------------------------|

Guitar two
e|---------------------------------------------------|
B|---------------------------------------------------|
G|---------6--------4-------2-------2----------------|x4
D|-------6---6----4---4---2---2---2---2--------------|
A|-----4--------2-------0-------0--------------------|
E|---------------------------------------------------|


ChoruS:


e|--000000000-00000000-00000000-00000000----|
B|--777777777-77777777-77777777-77777777----|
G|--999999999-99999999-99999999-88888888----|
D|--999999999-99999999-99999999-99999999----|
A|--777777777-xxxxxxxx-xxxxxxxx-66666666----|
E|--xxxxxxxxx-77777777-99999999-xxxxxxxx----|

e|--000000000-00000000-00000000---0~--0~--0~--0~-|
B|--777777777-77777777-77777777---0~--0~--0~--0~-|
G|--999999999-99999999-99999999---2~--1~--2~--4~-|
D|--999999999-99999999-99999999---2~--2~--2~--2~-|
A|--777777777-xxxxxxxx-xxxxxxxx---0~--0~--0~--0~-|
E|--xxxxxxxxx-77777777-99999999------------------|

--Play a VersE--

--Play a ChoruS—

InterludE:

Guitar one
e|---------------------|
B|---5h7p5-------------|
G|---------------------|
D|---------------------|(play this an extreme amount of times)
A|---------------------|
E|---------------------|

Guitar 2

e|----0~---0--0~---0~--|
B|----0~---0--0~---0~--|
G|----9~---9--9~---8~--|
D|----9~---9--9~---9~--|x2
A|----7~---x--x----6~--|
E|----x----7--9~---x---|


--Play a ChoruS--

--Play the InterludE—


and thats it...

Thankyou and goodnight
Tap to rate this tab
 
# A B C D E F G H I J K L M N O P Q R S T U V W X Y Z