Song name
# A B C D E F G H I J K L M N O P Q R S T U V W X Y Z

Angelas Dish - Whem Im Gone tab

Song:Whem I'm Gone
Band:Angelas Dish
Album:My Body Is An Ashtray EP
Band Website:http://angelasdish.com/
Pic colour:Orange

Yeah Angelas Dish are awesome and this song is sweet. Listen to the song for timing if 
can't figure it out.

Tuning:EADGBe

IntrO:
e|-----------------|
B|-----------------|
G|------44--99-99--|
D|--66--44--99-99--|x2
A|--66--22--77-77--|
E|--44-------------|

VersE:

e|-----------------------|
B|-----------------------|
G|------44--99-99--------|
D|--66--44--99-99--------|
A|--66--22--77-77--4--2--|
E|--44-------------------|

e|-----------------------|
B|-----------------------|
G|------44--99-99--------|
D|--66--44--99-99--------|
A|--66--22--77-77--4~~~~-|
E|--44-------------------|

e|-----------------------|
B|-----------------------|
G|------44--99-99--------|
D|--66--44--99-99--------|
A|--66--22--77-77--4--2--|
E|--44-------------------|

e|-----------------------|
B|-----------------------|
G|------44--99-99--------|
D|--66--44--99-99--------|
A|--66--22--77-77--4~~~~-|
E|--44-------------------|

ChoruS:

e|----------------|
B|----------------|
G|--444-----------|
D|--444-0-222222--|x4
A|--222-0-222222--|
E|------0-000000--|


--Play IntrO--

--Play VersE--


ChoruS 2:
("Every single day of the week")
e|----------------|
B|----------------|
G|--444-----------|
D|--444-0-222222--|x4
A|--222-0-222222--|
E|------0-000000--|

("So when im gone away")
e|------------------------------------------------------------|
B|------------------------------------------------------------|
G|------------------------------------------------------------|
D|---666666-222222-666666-222222-666666-222222-666666666666---|
A|---666666-222222-666666-222222-666666-222222-666666666666---|
E|---444444-000000-444444-000000-444444-000000-444444444444---|

BreakdowN:

e|-----------------|
B|-----------------|
G|-----------------|
D|-66-4s6-9s11-8s9-|
A|-xx-x-x-x-x--x-x-|
E|-44-2s4-7s9--6s7-|

("Yeah honey you know i'm miles away")
e|-----------------------|
B|-----------------------|
G|----------------4s6s4--|
D|--6-6s4s6--6-6s4x-x-x--|
A|--x-x-x-x--x-x-x2-4-2--|
E|--4-4s2s4--4-4s2-------|

e|-----------------|
B|-----------------|
G|-----------------|
D|-66-4s6-9s11-8s9-|
A|-xx-x-x-x-x--x-x-|
E|-44-2s4-7s9--6s7-|

("But i just want you to hear me say")
e|-----------------------|
B|-----------------------|
G|----------------4s6s4--|
D|--6-6s4s6--6-6s4x-x-x--|
A|--x-x-x-x--x-x-x2-4-2--|
E|--4-4s2s4--4-4s2-------|


BridgE:
("Hey, everything will be ok)
e|-----------------------|
B|----2----2----2----2---|
G|---4-4--4-4--4-4--4-4--|
D|--4----4----4----4-----|(Play this lots of times)
A|-----------------------|
E|-----------------------|
PM........................

("Hey, everything'll be o be ok")
e|----------------|
B|----------------|
G|--444-----------|
D|--444-0-222222--|x4
A|--222-0-222222--|
E|------0-000000--|


ChoruS 3:

("Hey, everything will be alright")
e|----------------|
B|----------------|
G|--444-----------|
D|--444-0-222222--|x4
A|--222-0-222222--|
E|------0-000000--|


("So when im gone away")
e|--------------------------|
B|--------------------------|
G|--------------------------|
D|---666666-222222-666666---|
A|---666666-222222-666666---|
E|---444444-000000-444444---|

e|-------|
B|-------|
G|-------|
D|--2~~--|
A|--2~~--|
E|--0~~--|


THE END

Thankyou and goodnight
Tap to rate this tab
# A B C D E F G H I J K L M N O P Q R S T U V W X Y Z