Song name
# A B C D E F G H I J K L M N O P Q R S T U V W X Y Z

Angelas Dish - My Screaming Heart tab

Song:My Screaming Heart
Band:Angelas Dish
Album:My Body Is An Ashtray EP
Band Website: http://angelasdish.com/
Pic colour:orange

My Screaming Heart. Great song. On there myspace they calll it screaming but ill stick 
the name thats on the cd cover. For timing just listen to the song and you'll be fine.

Tuning:EADGBe

IntrO:
Guitar 1:
e|-----------------------|
B|-----------------------|
G|--8/10\8/10\8/10\8/10--|
D|--x-x--x-x--x-x--x-x---|
A|--6/8-\6/8-\6/8-\6/8---|
E|-----------------------|

e|-----------------------|
B|-----------------------|
G|--8/10\8/10\8/10\8\6---|
D|--x-x--x-x--x-x--x-x---|
A|--6/8\-6/8\-6/8\-6\4---|
E|-----------------------|

Guitar two:
e|-----------------------|
B|-----------------------|
G|--6~~------------------|
D|--6~~------------------|
A|--4~~------------------|
E|-----------------------|

e|-----------------------|
B|-----------------------|
G|-----------------------|
D|--4~~------------------|
A|--4~~------------------|
E|--2~~------------------|


VersE:

("Cut me up and poor me out")
e|-----------------------|
B|-----------------------|
G|--6~~------------------|
D|--6~~------------------|
A|--4~~------------------|
E|-----------------------|

e|-----------------------|
B|-----------------------|
G|-----------------------|
D|--4~~------------------|
A|--4~~------------------|
E|--2~~------------------|

e|-----------------------|
B|-----------------------|
G|--6~~------------------|
D|--6~~------------------|
A|--4~~------------------|
E|-----------------------|

e|-----------------------|
B|-----------------------|
G|-----------------------|
D|--4~~------------------|
A|--4~~------------------|
E|--2~~------------------|

PrechoruS:
("But not to meeeeeeeeeeeeeeeeeeee")
e|-------------------------------------|
B|---14p13h14p13h14p13h14p13h14p13-----|
G|--------------------------------13---|
D|-------------------------------------|
A|-------------------------------------|
E|-------------------------------------|

e|-------------------------------------------------|
B|--/11-9-6/9\6---13--13--13--13--14--14--14--14---|
G|------------------13--13--13--13--13--13--13-13--|
D|-------------------------------------------------|
A|-------------------------------------------------|
E|-------------------------------------------------|

ChoruS:

("So pick me up before this pulls me down")
e|------------------------------------|
B|------------------------------------|
G|--66666666--------------------------|
D|--66666666444444446666666644444444--|x2
A|--44444444444444446666666644444444--|
E|----------222222224444444422222222--|


--Play IntrO--

--Play VersE--

--Play ChoruS--

Bridge:

("And the silence... it breaks me tonight")
e|------------------------------|
B|------------------------------|(NOTE:those are 11's not 1's)
G|------------------------------|
D|-4444666666/8888/111111111111-|x5
A|-4444666666/8888/111111111111-|
E|-2222444444/6666/9-9-9-9-9-9--|

PrechoruS 2:

Guitar one:
e|-----------------------|
B|--13~~-----------------|
G|-----------------------|
D|-----------------------|
A|-----------------------|
E|-----------------------|

e|-----------------------|
B|--13~~-----------------|
G|-----------------------|
D|-----------------------|
A|-----------------------|
E|-----------------------|

Guitar two

e|-----------------------|
B|-----------------------|
G|--6~~------------------|
D|--6~~------------------|
A|--4~~------------------|
E|-----------------------|

e|-----------------------|
B|-----------------------|
G|--6~~------------------|
D|--6~~------------------|
A|--4~~------------------|
E|-----------------------|

Final Chorus
("WELL PICK ME UP BEFORE THIS PULLS ME DOWN")
e|----------------------------|
B|----------------------------|
G|----------------------------|
D|--444444446666666644444444--|(NOTE:The guitar comes in when he says pulls
A|--444444446666666644444444--|and then continues as normal)
E|--222222224444444422222222--|

e|------------------------------------|
B|------------------------------------|
G|--66666666--------------------------|
D|--66666666444444446666666644444444--|x3
A|--44444444444444446666666644444444--|
E|----------222222224444444422222222--|

...and thats the end...


Thankyou and Goodnight
Tap to rate this tab
 
# A B C D E F G H I J K L M N O P Q R S T U V W X Y Z