Guitaretab - guitar tabs
Song name
# A B C D E F G H I J K L M N O P Q R S T U V W X Y Z

Angeles Del Infierno - Al Otro Lado Del Silencio tab

INTRO: Gutarra 1

e|-12----12----10----8---8---8---10----10----10----7---7---7----------|
B|---12----12----10---8---8---8----10----10----10---7---7---7---------|
G|-----12----12--------9---9---------11----11--------8---8------------|
D|--------------------------------------------------------------------|
A|--------------------------------------------------------------------|
E|--------------------------------------------------------------------|

Luego entra la guitarra 2:

e|-------------------5----------------------------------------------5-----------|
B|--0--5--5--5--7--8-----8--7--5--7--8---7-----5--0--5--5--5--7--8-----8--7--5--|
G|-------------------------------------7----------------------------------------|
D|------------------------------------------------------------------------------|
A|------------------------------------------------------------------------------|
E|------------------------------------------------------------------------------|

e|--------------5--5^7----|
B|--7--8--7--8------------|
G|------------------------|
D|------------------------|
A|------------------------|
E|------------------------|

Guitarras 1 y 2:

Em                 C           D                  Em
cerré los ojos por un instante    y    te  veo a  tí,
e|-12----12----10----8---8---8---10----10----10---12----12----12------|
B|---12----12----10---8---8---8----10----10----10---12----12----12----|
G|-----12----12--------9---9---------11----11---------12----12--------|
D|--------------------------------------------------------------------|
A|--------------------------------------------------------------------|
E|--------------------------------------------------------------------|

Em                   C             D               B7
imáge  nes    que no se han borrado de un pasado feliz
e|-12----12----10----8---8---8---10----10----10----7---7---7----------|
B|---12----12----10---8---8---8----10----10----10---7---7---7---------|
G|-----12----12--------9---9---------11----11--------8---8------------|
D|--------------------------------------------------------------------|
A|--------------------------------------------------------------------|
E|--------------------------------------------------------------------|

Todas las otras estrófas llevan el mismo acompañamiento del la primera
estrofa.

Coro: (La guitarra 2 tiene las notas entre paréntesis)

   E5 (Em)       D5  C5(C)
   Que hay amigo
           D5(D)         E5 (Em)
   al otro lado del silencio
   E5 (Em)       D5  C5(C)
   Que hay amigo
           B5(B)        A5(Am)
   al otro lado del silencio


Gutarra 3: (la guitarra 1 toca las notas del coro 1 vez)
[ Tab from: http://www.guitaretab.com/a/angeles-del-infierno/109639.html ]
e|--------------------------------------------------------------------|
B|--------------------------------------------------------------------|
G|--------------------------------------------------------------------|
D|--9^10-(9)----9^10-(9)----------7-----------------------------------|
A|-----------7---------------9-10---10-9----7-------------------------|
E|-----------------------10--------------10---------------------------|

Después del coro la guitarra 3 toca el siguiente solo:
(Las guitarras 1 y 2 tocan las notas del coro)

e|-----------------------------------------------19^20-(19)-----------|
B|----------------------------------------------------------17--------|
G|--------------------------------------------------------------------|
D|--9^10-(9)----9^10-(9)----------7-----------------------------------|
A|-----------7---------------9-10---10-9----7-------------------------|
E|-----------------------10--------------10---------------------------|

e|-----------17-------------------------------------------------------|
B|--17-19-20----20-19----17---12-----10-------------------------------|
G|--------------------19------14^16--12^14--12-9-11-12-11-12-11-12-11-|
D|--------------------------------------------------------------------|
A|--------------------------------------------------------------------|
E|--------------------------------------------------------------------|

e|--12-----------------------------------------0----------------------|
B|--15^17----------------------------0-1-0-1-3------------------------|
G|------------------------------0-2-----------------------------------|
D|---------------------0--0-2-4---------------------------------------|
A|---------------0-2-3------------------------------------------------|
E|---------0-2-3------------------------------------------------------|

e|--12------14-15-17-15-14-15-17-17^19--------------------------------|
B|--15^17-------------------------------------------------------------|
G|--------------------------------------------------------------------|
D|--------------------------------------------------------------------|
A|--------------------------------------------------------------------|
E|--------------------------------------------------------------------|

Aquí está el esquema de la canción:
Em                 C           D          Em
Cerré los ojos por un instante y te veo a ti,
Em                 C           D             B7
imágenes que no se han borrado de un pasado feliz.
Em                C       D               Em
Sueños que nunca llegarán a hacerse realidad.
Em                    C         D                 B7
Tu nombre escrito en una pared con el viento hablará.

Coro:
Em           C        D             Em
Que hay amigo al otro lado del silencio (bis)

(solo #1)

Canciones que recuerdan lugares suenan para ti,
palabras que nunca he olvidado y me hacen sentir.
Sueños que nunca llegarán a hacerse realidad.
Tu nombre escrito en una pared con el viento hablará.

Coro:

(Solo #2)

con las notas del coro se toca:

Que... al otro lado del silencio (bis)

Coro:

Final (2 veces solo # 1)
Related for Al Otro Lado Del Silencio tab
Advertisement will be closed in 10 seconds