Song name
# A B C D E F G H I J K L M N O P Q R S T U V W X Y Z

Angelfish - Suffocate Me tab

I hope this is correct!!!! else thatīs too bad for you!!! greetz xxx --,-@


Intro:
E|--------------|------------------------------------------|
B|--------------|------------------------------------------|
G|---4---4---4--|------------------------------------------|
D|-2---2---2----|--5-4-2--5-4-2--5-4-2--2-4-5-7-5-4-5-4-2--|
A|--------------|------------------------------------------|
E|--------------|------------------------------------------|

repeat a few times
Verse:
E|---------------------------------|  Riff between verses (B string):
B|---------------------------------|   |-0-3-0-3-5--0-3-0-3-5-|
G|---------------------------------|   
D|---------------------------------|
A|-2-2-2-2-2-2-2-2-2-2-2-2-2-2-2-2-|
E|-0-0-0-0-0-0-0-0-0-0-0-0-0-0-0-0-|

Bridge:
   "falls....falls..."
E|------------|             Little Riff you hear stuck in there:
B|------------|             G|------11----12-11-12-11-12-16--|
G|------------|             D|-9-10--------------------------|
D|-4---5---4--|
A|-2---3---2--|
E|------------|

Fill 1:
E|-------------------------------------------------------|
B|-------------------------------------------------------|
G|-------------0-------------2--------------4--5-4-------|
D|-2-2-2-2-2-2---2-2-2-2-2-2---2-2-2-2-2-2---------------|
A|--------------------------------------------------3-2--|
E|-------------------------------------------------------|

Fill 2:
E|------------------------|
B|-3----------------------|
G|----1--------1-2--------|   Play Twice
D|-------2----------2-0---|  
A|------------------------|
E|------------------------|

Verse:
     "I love you..."
D|-2-4-5-4-5-2--7-5-4-5-4-2--|

Repeat Bridge 

just fool around with the G and D string for the last riff during "Suffocate Me"


Tap to rate this tab
# A B C D E F G H I J K L M N O P Q R S T U V W X Y Z