Song name
# A B C D E F G H I J K L M N O P Q R S T U V W X Y Z

Angelo Badalamenti - Nightingale tab

-------------------------------------------------------------------------------
			     NIGHTINGALE - Norah Jones
-------------------------------------------------------------------------------
Tabbed by: iccilicus
Comments: This is a variation of the previous tab submitted by Pete:Townshend.
When a capo is placed on the 2nd fret this song is much easier to play.
Comments, critique etc. are welcome, as always.
Contact at: www.myspace.com/iccilicus


Tuning: Standard Tuning, Capo 2nd Fret.
(Tab is relative to capo - ie. 0 is actually 2nd fret).


INTRO

    G                                 G/F
f#------0---------------------------|------0---------------------------|
C#------------3---------------------|------------3---------------------|
 A------------------0-----0-----0---|------------------0-----0-----0---|
 E----0-----0-----0-----0-----0---0-|----0-----0-----0-----0-----0---0-|
 B----------------------------------|----------------------------------|
F#--3-----3-----3-----3-----3-------|--1-----1-----1-----1-----1-------|

    G/C                                 G
f#------0---------------------------||-------|
C#------------3---------------------||-----3-|
 A------------------0-----0-----0---||----0--|
 E----0-----0-----0-----0-----0-----||---0---|
 B--3-----3-----3-----3-----3-------||--2----|
F#----------------------------------||-3-----|

CHORUS "Nightingale, sing us a song...

    G                                 G/F
f#----------------------------------|----------------------------------|
C#------3-----3-----3-----3-----3---|------3-----3-----3-----3-----3---|
 A------0-----0-----0-----0-----0---|------0-----0-----0-----0-----0---|
 E----0-----0-----0-----0-----0---0-|----0-----0-----0-----0-----0---0-|
 B----------------------------------|----------------------------------|
F#--3-----3-----3-----3-----3-------|--1-----1-----1-----1-----1-------|

    G/C                               G
f#----------------------------------|----------------------------------|
C#------3-----3-----3-----3-----3---|------3-----3-----3-----3-----3---|
 A------0-----0-----0-----0-----0---|------0-----0-----0-----0-----0---|  (2x)
 E----0-----0-----0-----0-----0---0-|----0-----0-----0-----0-----0---0-|
 B--3-----3-----3-----3-----3-------|----------------------------------|
F#----------------------------------|--3-----3-----3-----3-----3-------|

... journey far too long"

VERSE "Does it seem like...

    G/C
f#------0---------------------------|------0---------------------------|
C#------------3---------------------|------------3---------------------|
 A------------------0-----0-----0---|------------------0-----0-----0---|
 E----0-----0-----0-----0-----0---0-|----0-----0-----0-----0-----0---0-|
 B----------------------------------|--3-----3-----3-----3-----3-------|
F#--1-----1-----1-----1-----1-------|----------------------------------|

... for an answer"

"To a question I...

    G                                 G/F
f#------0---------------------------|------0---------------------------|
C#------------3---------------------|------------3---------------------|
 A------------------0-----0-----0---|------------------0-----0-----0---|
 E----0-----0-----0-----0-----0---0-|----0-----0-----0-----0-----0---0-|
 B----------------------------------|----------------------------------|
F#--3-----3-----3-----3-----3-------|--1-----1-----1-----1-----1-------|

    G/C
f#------0---------------------------|
C#------------3---------------------|
 A------------------0-----0-----0---|  (2x)
 E----0-----0-----0-----0-----0---0-|
 B--3-----3-----3-----3-----3-------|
F#----------------------------------|

...blow it to the left"


Then play
CHORUS
VERSE
BRIDGE (Same as chorus, except repeated 4x instead of 2x)
VERSE
OUTRO (Same as chorus, except repeated to fade)

===============================================================================

FULL SONG LYRICS

~CHORUS~
Nightingale

Sing us a song

Of a love that once belonged

Nightingale

Tell me your tale

Was your journey far too long?


~VERSE 1~

Does it seem like I'm looking for an answer

To a question I can't ask

I don't know which way the feather falls

Or if I should blow it to the left


~CHORUS~

~VERSE 2~

All the voices that are spinnin' around me

Trying to tell me what to say

Can I fly right behind you

And you can take me away


~BRIDGE~

~VERSE 2~

~OUTRO~
Tap to rate this tab
# A B C D E F G H I J K L M N O P Q R S T U V W X Y Z