Song name
# A B C D E F G H I J K L M N O P Q R S T U V W X Y Z

Angels And Airwaves - Do It For Me Now Acoustic tab

Help us improve GuitareTab! Take a short survey!
-------------------------------------------------------------------------------
			     Do it for me now acoustic- Angels and Airwaves
-------------------------------------------------------------------------------

Tuning: Standard

--------Tom's guitar   (guitar one)

e|-----------------------------------------------------------------------------|
B|-----------------------------------------------------------------------------|
G|-----------------------------------------------------------------------------|
D|------11-11----11-9----11-7---7-7--7-7-6h7--7-9-7-6--------------------------|
A|--0-0--------0-------0-------0----0---0-----0--------------------------------|
E|-----------------------------------------------------------------------------|

  Davids guitar during intro  (guitar 2)
e|---------------------------------------------------------------------------------|
B|---------------------------------------------------------------------------------|
G|-------------------------------7-------------------------------------------------|
D|-----7-------------4----------7--------------7-----------------------------------|
A|----7-------------4----------5--------------7------------------------------------|
E|---5-------------2-------------------------5-------------------------------------|
   hold for as long as the actual song does.. and repeat that until the chorus

guitar one ( toms intro part ) comes in during when ( guy grabs the girl and gives her 
hand) just like the normal song


  CHORUS
e|---------------------------------------------------------------------------------|
B|---------------------------------------------------------------------------------|
G|----------------7--------------------7-------------------------------------------|
D|-----7---------7----------7---------7--------------------------------------------|
A|----7---------5----------7---------5---------------------------------------------|
E|---5--------------------5--------------------------------------------------------|

  chorus- david's part---play it with the song for the right timing
e|-----------------9-10-12-------------9-10-12-------------------------------------------|
B|--------10---12--------------10-9-12---------------------------------------------------|
G|---------------------------------------------------------------------------------------|
D|---------------------------------------------------------------------------------------|
A|---------------------------------------------------------------------------------------|
E|---------------------------------------------------------------------------------------|



thats pretty much it ...
Related for Do It For Me Now Acoustic tab