Song name
# A B C D E F G H I J K L M N O P Q R S T U V W X Y Z

Angels And Airwaves - Secret Crowds Live tab

Angels And Airwaves
Secret Crowds Live Version
As played at KROQ ALMOST ACOUSTIC CHRISTMAS
http://www.youtube.com/watch?v=5bmjuRA0h6Q
David Kennedy
Tom Delonge
Atom Willard

Intro
(Have to get the strumming down yourself.)
e|----------------------------------------|
B|----------------------------------------|
G|-4-4-4-4-4-4-4-4-4-4-4-4-4-4-4-4-4-4----|Play that
D|-x-x-x-x-x-x-x-x-x-x-x-x-x-x-x-x-x-x----| a bunch
A|-2-2-2-2-2-2-2-2-2-2-2-2-2-2-2-2-2-2----|
E|----------------------------------------|
    
Riff
        
e|------------------------|
B|------------------------|
G|-8/444444/333333\4------|x8
D|-x/xxxxxx/xxxxxx\x------|
A|-6/222222/111111\2------|
E|------------------------|
    
Verse
(Comes in second time around)
e|----------------------------------------------|
B|----------------------------------------------|
G|-1111111111111111/99999999/88888888\99999999--|
D|-x-x-x-x-x-x-x-x-/xxxxxxxx/xxxxxxxx\xxxxxxxx--|
A|-9-9-9-9-9-9-9-9-/77777777/66666666\77777777--|
E|----------------------------------------------|
  
                                       
Chorus
                
                 
e|------------------------------------------|
B|------------------------------------------|
G|-444444444--------------------------------|x4
D|-444444444--44444--22222------------------|
A|-222222222--44444--22222------------------|
E|------------22222--00000------------------|
Riff Again
                                                   
e|------------------------|
B|------------------------|
G|-8/444444/333333\4------|x4
D|-x/xxxxxx/xxxxxx\x------|
A|-6/222222/111111\2------|
E|------------------------|

Verse 2
(Again it comes in the second time)
e|----------------------------------------------|
B|----------------------------------------------|
G|-1111111111111111/99999999/88888888\99999999--|
D|-x-x-x-x-x-x-x-x-/xxxxxxxx/xxxxxxxx\xxxxxxxx--|
A|-9-9-9-9-9-9-9-9-/77777777/66666666\77777777--|
E|----------------------------------------------|
  
                                      
Chorus      
               
e|------------------------------------------|
B|------------------------------------------|
G|-444444444--------------------------------|x4
D|-444444444--44444--22222------------------|
A|-222222222--44444--22222------------------|
E|------------22222--00000------------------|


Interlude

e|------------------------------------------|
B|------------------------------------------|
G|-4~~~~~~~~~~~~~~~~------------------------|x4
D|-4~~~~~~~~~~~~~~~~------------------------|
A|-2~~~~~~~~~~~~~~~~------------------------|
E|------------------------------------------|
               
Final Chorus
e|------------------------------------------|
B|------------------------------------------|
G|-444444444--------------------------------|x8
D|-444444444--44444--22222------------------|
A|-222222222--44444--22222------------------|
E|------------22222--00000------------------|
                      
e|---|
B|---|
G|-2~|
D|-2~|
A|-0~|
E|---|
 
Tap to rate this tab
# A B C D E F G H I J K L M N O P Q R S T U V W X Y Z