Song name
# A B C D E F G H I J K L M N O P Q R S T U V W X Y Z

Angels And Airwaves - Wrecked Him tab

its my first time doing it on the net but here it goes!
INTRO
E--------------------------------------------------------|
A--------------------------------------------------------|
D--------------------------------------------------------|
G--------------------------------------------------------|
B--------------------------------------------------------|
E---5---5-5-5-5-5-5--------3--3-3-3-3-3-3----------------|x4


G2
E--------------------------------------------------------|
A---3-3-3-3-3-3-3-3------------------3-3-3-3-3-3-3-3-----|
D---2-2-2-2-2-2-2-2------------------0-0-0-0-0-0-0-0-----|
G---0-0-0-0-0-0-0-0------------------0-0-0-0-0-0-0-0-----|
B--------------------------------------------------------|
E--------------------------------------------------------|x4

then u hear the drums

E-----------------------------------------------------------|
A-----------------------------------------------------------|
D--------7-7-7--6-6----------6-6-6--7-7----------7-7-7--6-6-|
G-4-4-4---------------5-5-5---------------7-7-7-------------|
B-----------------------------------------------------------|
E-----------------------------------------------------------|

E-------------------------|
A-------------------------|
D---------6-6-6--7-7------|
G--5-5-5---------------4--|(do the 4 after u repeated the part after the drums)
B-------------------------|
E-------------------------|

Verse
E---------------------------------------------------------|
A---------------------------------------------------------|
D-7-7-7-0-------------------------------------------------|
G-7-7-7-0-----5-5-5-5-----7-7-7-0-----5-5-5-5-------------|
B-5-5-5-0-----5-5-5-5-----7-7-7-0-----5-5-5-5-------------|
E-------------3-3-3-3-----5-5-5-0-----3-3-3-3-------------|x4

Chorus

E---------------------------------------------------------|
A---------------------------------------------------------|
D-7-7-7-0-----9-9-9-0-------------------------------------|
G-7-7-7-0-----9-9-9-0-----5-5-5-0-----7-7-7-7-------------|
B-5-5-5-0-----7-7-7-0-----5-5-5-0-----7-7-7-7-------------|
E-------------------------3-3-3-0-----5-5-5-5-------------|x4


back to intro after drums then verse then chorus then this
(the second time, do the verse twice with distortion)
Bridge-
E----------------------------------------------------------|
A----------------------------------------------------------|
D---7------------------------------------------------------|
G---7--(let ring)------------------------------------------|
B---5------------------------------------------------------|
E----------------------------------------------------------|

G2
E----------------------------------------------------------|
A----------------------------------------------------------|
D----------------------------------------------------------|
G----------------------------------------------------------|
B--9-9-9-9-9---9-9-9-9-9-(slide)-4-4-4-4-4--5-5-5-5-5------|
E----------------------------------------------------------|x4


Solo-

E----------------------------------------|---------------------|
A--------------------------------------.-|---------------------|
D---------------------------------h-p----|--7-6--7-6--7-6--7-6-|
G------0-0---0-0-0-0-------------4-5-4-.-|---------------------|
B-5-5------4---------4-5-/-7-5-4-------5-|---------------------|

-7-6--7-6  is done 8 times

solo con't

E--------------------------------|----------------------------|
A-----------------------------.--|----------------------------|
D-------h-------p----p-----------|----------------------------|
G--7-5-4-5-7---5-4--5-4-------.--|----------------------------|
B------------------------5-------|----------------------------|
E--------------------------------|----------------------------|

back to verse and chorus. end on last chorus note

 |
.|
 |    this means repeat once just in case u get confused :)
.|
 |
 |


-Problems ?  email me @  streetracer_spongebob@hotmail.com

just put the subject as ava tabs so i know - tanx!
Tap to rate this tab
# A B C D E F G H I J K L M N O P Q R S T U V W X Y Z