Song name
# A B C D E F G H I J K L M N O P Q R S T U V W X Y Z

Angels And Airwaves - There Is Live tab

Angels and Airwaves
There is(live)
tabbed by: Amp
Order:
Intro x how ever many (4 is good)
Intro2 x 1
verse1 x 4
chorus x 2
verse(no singing) x 2
verse 2 x 2
chorus x2
bridge
chorus x 6
(just to clarify the chords for the verse and chorus are the same!)


Intro
e|-------------------------------------------------|  Normally in concert
B|-------------------------------------------------|  David plays this over
G|-----4~--------4~--------4~-----4~---------------|  and over while tom is
D|-----4~--------4~--------4~-----4~---------------|  talking..
A|--2----------------------------------------------|
E|-----------2~-------4---------2------------------|

Intro2
e|----------------------------------|      Then he hits these before the
B|----------------------------------|      singing
G|-4~----4~-------------------------|
D|-4~----4~-------------------------|
A|----------------------------------|
E|-4~----2~-------------------------|

verses/chorus'
e|-----------------------------------------------| MAIN RIFF(Verse and chorus)
B|-----------------------------------------------|
G|-4444444--4444444--444444---444444-------------|
D|-4444444--4444444--444444---444444-------------|
A|-2222222---------------------------------------|
E|----------2222222---444444--222222-------------|

Bridge

e|----------------------------------------------   each chord here is hit 8--|
B|---------------------------------------------------------------------------|   times. but the strumming
G|-8888--9999--8888--9999--8888--9999--4444--6666----------------------------|   is weird so you have to
D|-xxxx--xxxx--xxxx--xxxx--xxxx--xxxx--xxxx--x-------------------------------|xxx  figure it out..
A|-6666--7777--6666--7777--6666--7777--2222--4444----------------------------| also it sounds better when
E|---------------------------------------------------------------------------| you slide tot he next chord


e|----------------------------------------------  then back to this x 6-|
B|----------------------------------------------------------------------|
G|-4444444--4444444--444444---444444------------------------------------|
D|-4444444--4444444--444444---444444------------------------------------|
A|-2222222--------------------------------------------------------------|
E|----------2222222---444444--222222------------------------------------|
Tap to rate this tab
 
# A B C D E F G H I J K L M N O P Q R S T U V W X Y Z