Song name
# A B C D E F G H I J K L M N O P Q R S T U V W X Y Z

Angels And Airwaves - Star Of Bethlehem tab

Help us improve GuitareTab! Take a short survey!
Intro with Delay (3:11 - 4:02)
---------------------------|
---------------------------|
--9-9---6----7-7-7---------|
----------------------7----|
---------------------------|
---------------------------|

Chorus
1st Guitar:
------------------------|
--10---10---10---10-----|
---9----7-----9----7----|
---7----7-----7----7----|
------------------------|
------------------------|

2nd Guitar :

---------------------------------------|
---------------------------------------|
--------------4~~----6~~----7~~--------|
----2~~----4~~----6~~----7~~-----------|
----2~~----2~~----4 ~~---5~~-----------|
----0~~--------------------------------|

Vers :
------------------------|
------------------------|
------------------------|
7-7-7-7-7-7-7-7-7-------| (palm)
------------------------|
------------------------|

Bridge after verse : with the yohey oweyo  oh wey oh.
1st Guitar:
---------------------------|
---------------------------|
--9-9---6----7-7-7---------|
----------------------7----|
---------------------------|
---------------------------|

2nd Guitar :

---------------------------|
---------------------------|
-------------7~~-----------|
-----7~~----7~~------------|
-----7~~----5~~------------|
-----5~~-------------------|

2nd Verse:

1st Guitar
------------------------|
------------------------|
------------------------|
7-7-7-7-7-7-7-7-7-------| (palm)
------------------------|
------------------------|

2nd Guitar

Chorus
1st Guitar:
------------------------|
--10---10---10---10-----|
---9----7-----9----7----|
---7----7-----7----7----|
------------------------|
------------------------|

2nd Guitar :

--------------------------------------|
--------------------------------------|
--------------4~~----6~~----7~~-------|
----2~~----4~~----6~~----7~~----------|
----2~~----2~~----4 ~~---5~~----------|
----0~~-------------------------------|

Bridge:
-----5~---7~---5~--------------------------------7~-----9~---5~---------------------------7~--4--5--------------------------|
--5~---5~---5~-------------------------------5~-----------------------------------------5~------5--5------------------------|
-----------------------9------7------6-------------------------------9------7----6-----------------------9-----7----6-------|
--------------------7------7------7-------------------------------7------7-----7-----------------------7----7-----7---------|
----------------------------------------------------------------------------------------------------------------------------|
----------------------------------------------------------------------------------------------------------------------------|

------7~----9~------------------------------------|
--5~--------------5~------------------------------|
------------------------------9------7-----6------|
---------------------------7------7-----7---------|
--------------------------------------------------|
--------------------------------------------------|

Chorus

End

---------------------------|
---------------------------|
---------------------------|
----7~~-------7---7~~------|
----7~~-------7---7~~------|
----5~~-------5---5~~------|

this is my second tab, hope you enjoy it
+182airwaves
Related for Star Of Bethlehem tab