Song name
# A B C D E F G H I J K L M N O P Q R S T U V W X Y Z

Angels And Airwaves - Love Like Rockets tab

Guitar 1

INTRO (Crunch tone with heavy delay) ( 00:47 )
|-----------------------------------------------------------------|
|-----------------------------------------------------------------|
|----------14--------11-12-11-------------------------------------|Xlike 15
|-12-12-12---12-12-12---------------------------------------------|
|-----------------------------------------------------------------|
|-----------------------------------------------------------------|
Pm.......    Pm.....  

Guitar 2   (Reverb light delay) ( 00:48)

|-----------------------------------------------------------------|
|-----------5~---7~-------------5~--3~----------------------------|
|-2~---0~-------------2~---0~-------------------------------------| X like 6
|-----------------------------------------------------------------|
|-----------------------------------------------------------------|
|-----------------------------------------------------------------|


Guitar One (01:18 )(No delay lightly distorted)

|-555-55-2-333-33-2-----------------------------------------------|
|-333-33-3-333-33-3-----------------------------------------------|
|-----------------------------------------------------------------| X A LOT
|-----------------------------------------------------------------|
|-----------------------------------------------------------------|
|-----------------------------------------------------------------|


Guitar 2 (01:17)

e|-----------------------------------------------------------------|
B|------33~--33~-3-------------------------------------------------|
G|-2~---00~--22~-2-------------------------------------------------| X A LOT
D|-0~--------------------------------------------------------------|
A|-----------------------------------------------------------------|
E|-----------------------------------------------------------------|


No guitar during chorus

Solo thing at 03:50

Guitar 1  (Lightly distorted)

e|-5---3---2-----2----------2--------------------------------------|
B|------------5-----3----5------2~---------------------------------|
G|-----------------------------------------------------------------| X2
D|-----------------------------------------------------------------|
A|-----------------------------------------------------------------|
E|-----------------------------------------------------------------|

Guitar 2  (Clean)

e|-----------------------------------------------------------------|
B|-----------------------------------------------------------------|
G|-----------------------------------------------------------------| X2
D|000000000000000000-----------------------------------------------|
A|-----------------------------------------------------------------|
E|-----------------------------------------------------------------|



Hope this helps
Tap to rate this tab
 
# A B C D E F G H I J K L M N O P Q R S T U V W X Y Z