Song name
# A B C D E F G H I J K L M N O P Q R S T U V W X Y Z

Angels And Airwaves - Love Trailer tab

Angels and Airwaves - Dear God
Tabbed By Cristian Angelini (c943008@gmail.com)

e|-------------8-8---------------------------------------------------------------|
B|------------------8---6-6------8---5--5----------------------------------------|
G|---9/5--5----------------5--5----------5-5--9---7-7--9-9----5--5---------------|
D|-------------------------------------------------------------------------------|
A|-------------------------------------------------------------------------------|
E|-------------------------------------------------------------------------------|

e|-------------8-8---------------------------------------------------------------|
B|------------------8---6-6----8---5--5------------------------------------------|
G|---5----------------------5-5------------5-5--9---777777----5--5--5------------|
D|-------------------------------------------------------------------------------|
A|-------------------------------------------------------------------------------|
E|-------------------------------------------------------------------------------|

or

e|-------------------------------------------------------------------------------|
B|-------------13-13-------------------------------------------------------------|
G|---9---------------12-10-10--------12-9-9--------9--7-7--9-9-------------------|
D|------10-10-----------------10-10---------10-10--------------10-10-------------|
A|-------------------------------------------------------------------------------|
E|-------------------------------------------------------------------------------|


e|-------------------------------------------------------------------------------|
B|----13-13----------------------------------------------------------------------|
G|----------12-10-10-------12-9-9--------9---777777------------------------------|
D|-10----------------10-10--------10-10--------------10-10-10--------------------|
A|-------------------------------------------------------------------------------|
E|-------------------------------------------------------------------------------|
Tap to rate this tab
# A B C D E F G H I J K L M N O P Q R S T U V W X Y Z