Song name
# A B C D E F G H I J K L M N O P Q R S T U V W X Y Z

Angels And Airwaves - Hallucinations tab

-------------------------------------------------------------------------------
			     HALLUCINATIONS - Angels & Airwaves
					     off "Love" (2010)
-------------------------------------------------------------------------------
Tabbed by: Kevin Heiland (Kevy Absolution)
Email: kevin.heiland@gmail.com
Note: Simple song, but really fun to play still. I'm excited to tab out this
album after it's release on February 14th, 2010.

Tuning: Standard

(Guitar Enters at 0:50)

Lead Intro Lick:
e|----------------------------------------|
B|----5---6---5-------3---6---------------|
G|--5---5---5---5---5---5---5-4-5---------|
D|----------------------------------------|
A|----------------------------------------|
E|----------------------------------------| x4

Rhythm Intro Chords(Listen for timing):
e|------------------------------------------|
B|------------------------------------------|
G|---5--7--10--5--7--10--2--------5--7--10--|
D|---5--7--10--5--7--10--2--5--3--5--7--10--|
A|---3--5--8---3--5--8---0--5--3--3--5--8---|
E|--------------------------3--1------------|

Rhythm Chord Changes:

       F5 
And you look real close
              C5                G5       
Cross the lines and the roads
      F5
It is there to decode
              C5                  G5
What you thought was a ghost
        F5         C5
Or a spark to explode
           C5             G5
It's the start of the show
           F5                      C5
It's the part you love the most
                 C5          G5
When your heart will implode within

C5                  D5 			C5 G5 F5
Do you believe in hallucinations, silly dreams or imaginations
C5                  D5
Don't go away cause I feel you this time
C5        G5     F5
Don't go away cause I need you there this time

(Intro Lick and Chords)

           F5
As the rain floats home
         C5            G5
Carry us back to shore
                F5
And up the mountainous coast 
                C5              G5
Where the sun starts to glow
              F5               C5
From our head to our toes
          C5                G5
To the stars that we know
              F5            C5
And with you as my host
         C5        G5
It will keep us afloat again

(Chorus x2)

(Guitar tacet)

The silence is taxing
I'm waiting for something
There's images of love and war
And everything's here to explore
It's all alike, unusual, a different place
But beautiful and it is not quite as it seems
I hear the children's laughs and screams

It's beautiful
So beautiful
It's beautiful

(Chorus x2)

===============================================================================
Tap to rate this tab
# A B C D E F G H I J K L M N O P Q R S T U V W X Y Z