Song name
# A B C D E F G H I J K L M N O P Q R S T U V W X Y Z

Angels And Airwaves - Hallucinations tab

-------------------------------------------------------------------------------
			     HALLUCINATIONS - Angels and Airwaves
-------------------------------------------------------------------------------
Tabbed by: ComebackChemist
Email: stefanchow77@hotmail.com

Tuning: EADGBe

Recently Tom Delonge released this song on their website. So I decided to transcribe it 
everyone!
This song is simply amazing, and I can't wait for the free album coming out on 
Day 2010.
Anyhoo, this is my first tab. It's pretty much down as an outline (for the mean time 
others can figure it out).
The tab is not entirely correct, especially the interlude (it was the hardest to 
but other than that it should be pretty good. Enjoy.


INTRO part 1:
(Synthesizer or whatever it is)
e|------------------------------------------------------|
B|------------------------------------------------------|
G|----------------------------------------5~------------|
D|--7~-----5~---3----------7~-----5~---3----------------|x1
A|-----------------3------------------------------------|
E|------------------------------------------------------|

INTRO part 2:
(Synthesizer or whatever it is):
This is played right after the first synthesizer part and right up to the PRE-VERSE.
e|----------------------------------------|
B|----------------------------------------|
G|--9~---7~---5~-------9~---7~---5~-------|
D|----------------------------------------|x3
A|----------------------------------------|
E|----------------------------------------|

Guitar 2:
Guitar comes in after the second synthesizer part is played once.
e|--------------------------------------------------------------|
B|--------------------------------------------------------------|
G|--5-9p5-5-9p5-5-7p5-5-7p5-5-9p5-5-9p5-5-10p5-5-10p5-----------|
D|--------------------------------------------------------------|x2
A|--------------------------------------------------------------|
E|--------------------------------------------------------------|

PRE-VERSE:
Guitar 1:
e|------------------------------------------------------|
B|-------5---6---5-----------3---6----------------------|
G|-----5---5---5---5-------5---5---5-4-5----------------|
D|----------------------00------------------------------|x4
A|--33--------------------------------------------------|
E|------------------------------------------------------|

Guitar 2:
e|-----------------------------------------------------------------|
B|-----------------------------------------------------------------|
G|--5~---7~-10~----5~---7~-10~-------------------5~---7~-10~-------|
D|--5~---7~-10~----5~---7~-10~----7~---5~-3~-----5~---7~-10~-------|
A|--3~---5~-8~-----3~---5~-8~-----7~---5~-3~-----3~---5~-8~--------|
E|--------------------------------5~---3~-1~-----------------------|

VERSE:
Guitar 1:
e|---------------------------------------------------------------------------|
B|---------------------------------------------------------------------------|
G|--5-----------------5------------------------------------------------------|
D|--5-----------------5-------5---------7------------------------------------|x2
A|--33333333----------333333335---------7------------------------------------|
E|----------11111111----------33333333--5555555511111111--5555555533333333---|
     ***************   ******* *******   ***************  ****************

CHORUS:
Both Guitars:
*NOTE: Strumming is odd, and you may need to listen to the song to understand the tabbed pattern.
e|-----------------------------------------|
B|-----------------------------------------|
G|--5-55-57-77-77----5-55------------------|
D|--5-55-57-77-77----5-55-55-33-33---------|x2
A|--3-33-35-55-55----3-33-55-33-33---------|
E|------------------------33-11-11---------|

PRE-VERSE:
Guitar 1:
e|------------------------------------------------------|
B|-------5---6---5-----------3---6----------------------|
G|-----5---5---5---5-------5---5---5-4-5----------------|
D|----------------------00------------------------------|x4
A|--33--------------------------------------------------|
E|------------------------------------------------------|

Guitar 2:
e|-----------------------------------------------------------------|
B|-----------------------------------------------------------------|
G|--5~---7~-10~----5~---7~-10~-------------------5~---7~-10~-------|
D|--5~---7~-10~----5~---7~-10~----7~---5~-3~-----5~---7~-10~-------|
A|--3~---5~-8~-----3~---5~-8~-----7~---5~-3~-----3~---5~-8~--------|
E|--------------------------------5~---3~-1~-----------------------|

VERSE:
Guitar 1:
e|---------------------------------------------------------------------------|
B|---------------------------------------------------------------------------|
G|--5-----------------5------------------------------------------------------|
D|--5-----------------5-------5---------7------------------------------------|x2
A|--33333333----------333333335---------7------------------------------------|
E|----------11111111----------33333333--5555555511111111--5555555533333333---|
     ***************   ******* *******   ***************  ****************

CHORUS:
Both Guitars:
e|-----------------------------------------|
B|-----------------------------------------|
G|--5-55-57-77-77----5-55------------------|
D|--5-55-57-77-77----5-55-55-33-33---------|x4
A|--3-33-35-55-55----3-33-55-33-33---------|
E|------------------------33-11-11---------|

Interlude:
Guitar 1 with delay and reverb:
e|------------------------|
B|----5----5-----5----5---|
G|---5-5--5-5---5-5--5-5--|
D|-------3----------3-----|x12
A|--3----------3----------|
E|------------------------|
    **** ****  **** ****

Synthesizer:
This comes in half way through the guitar part
e|------------------------------|
B|--5-3-6-5--5-3-6-0------------|
G|---5-5-5-5--5-5-5-5-----------|
D|------------------------------|x6
A|------------------------------|
E|------------------------------|
    ******** ********

CHORUS:
Both Guitars:
e|-----------------------------------------|
B|-----------------------------------------|
G|--5-55-57-77-77----5-55------------------|
D|--5-55-57-77-77----5-55-55-33-33---------|x6
A|--3-33-35-55-55----3-33-55-33-33---------|
E|------------------------33-11-11---------|

OUTRO:
Guitar 2:
*NOTE: Those are 1's.
e|---------------------------------------------------------------|
B|---------------------------------------------------------------|
G|-----------------------------------------------------------5~--|
D|-----------------------------------------------------------5~--|
A|-----3-3----3-3----3----3-3----3-3----3----3-3----3-3----3-3~--|
E|--00-----11-----11---00-----11-----11---00-----11-----11-------|


| *  palm mute
| /  slide up
| \  slide down
| h  hammer-on
| p  pull-off
| ~  sustain
| +  harmonic
| x  Mute note
===============================================================================
Tap to rate this tab
 
# A B C D E F G H I J K L M N O P Q R S T U V W X Y Z