Song name
# A B C D E F G H I J K L M N O P Q R S T U V W X Y Z

Angels And Airwaves - Hallucinations tab

Hallucinations - Angels And Airwaves
Tabbed by: Dragon 27


Tuning: Standard

Synthy Intro tabbed for guitar

|------------------------------------------|
|---5---5---5---5--------3----3----3----3--|
|-----5---5---5---5----5----5----5----5----|
|------------------------------------------|
|------------------------------------------|
|------------------------------------------|

----------------------------------------------|
---5---5----5----5----6----6----6----6--------|
-----5---5----5----5----5----5----5-----5-----|
----------------------------------------------|
----------------------------------------------|
----------------------------------------------|

Guitar Intro


|--------0-----1------0----------------------------------------------|
|-----1-----1-----1-------1-----1-----3-----1------1----0----1-------|
|--------------------------------------------------------------------|
|--------------------------------------------------------------------| x2
|--3-----------------------------------------------------------------|
|----------------------------0------------------1--------------------|


|--------0-----1------0------------------------------------------------|
|-----1-----1-----1-------1-----1-----3-----1------1----0----1---------|
|----------------------------------------------------------------------|
|----------------------------------------------------------------------|
|--0-------------------------------------------------------------------|
|----------------------------3------------------1----------------------|


|--------0-----1------0------------------------------------------------|
|-----1-----1-----1-------1-----1-----3-----1------1----0----1---------|
|----------------------------------------------------------------------|
|----------------------------------------------------------------- ----|
|--3-------------------------------------------------------------------|
|----------------------------0------------------1----------------------|

Text

|------------------------|
|------------------------|
|---------5--------------|
|--3------5-----5--------|
|--3------3-----5--------|
|--1------------3--------|


Chorus
|--------------------------------------|
|--------------------------------------|
|--5---5---5-------10------------------|
|--5---5---3-------10---10---10--------|
|--3---3---5-------7----10---8---------|
|------3---x-------x----8----8---------|


Outro

|--------------------------I-----------------------------|
|--------------------------I-----------------------------|
|--------------------------I-----------------------------|
|--------------------------I-----------------------------|
|---------3-----3----------I-----------3-------3---------|
|--0--0------0--------0----I--1----1--------1-------1----|
Tap to rate this tab
 
# A B C D E F G H I J K L M N O P Q R S T U V W X Y Z