Song name
# A B C D E F G H I J K L M N O P Q R S T U V W X Y Z

Angels And Airwaves - Sirens tab

My first tab for a great song

This is the four different parts of the piece, enjoy!

Intro/Verse

e|--------------------------------------------------------------|
B|---------------------------------------------------7----------|
G|-----9---7---------9---7---------9---7--------7----7----------|
D|-----7---7---------7---7---------7---7------------------------|   x5
A|--------------------------------------------------------------|
E|--------------------------------------------------------------|

Pre-chorus

e|--------------------------------------------------------------|
B|--------------------------------------------------------------|
G|--------------------------------------------------------------|
D|---11-11-------12-12--------14-14-----------------------------|
A|---9--9--------10-10--------12-12-----------------------------|   x4
E|--------------------------------------------------------------|


Chorus

e|-------------------------------------------------------------|
B|---------------------------------------------------5-7-------|
G|-----7-6-7-6------7-6-7-6--------5------7---------------5----|
D|--0----------7-7-----------5---5------5-----4-s-5------------|
A|-----------------------------5------5------------------------|    x4
E|-------------------------------------------------------------|

Bridge (listen carefully for the timing)

e|-------------------------------------------------------------------|
B|-------------------------------------------------------------------|
G|-14--11--9---7-7-7---9-9-9---11-11-----7---11--12--11-9---9--11-7--|
D|-x---x---x---x-x-x---x-x-x---x--x------x---x---x---x--x---x--x--x--|
A|-12--9---7---5-5-5---7-7-7---9--9------5---9---10--9--7---7--9--5--|   x2
Tap to rate this tab
 
# A B C D E F G H I J K L M N O P Q R S T U V W X Y Z