Song name
# A B C D E F G H I J K L M N O P Q R S T U V W X Y Z

Angels And Airwaves - Hallucinations tab

synth part

INTRO

e|------------------------------------------------------|
B|------------------------------------------------------|
G|----------------------------------------5~------------|
D|--7~-----5~---3----------7~-----5~---3----------------|x1
A|-----------------3------------------------------------|
E|------------------------------------------------------|


e|----------------------------------------|
B|----------------------------------------|
G|--9~---7~---5~-------9~---7~---5~-------|
D|----------------------------------------|x1
A|----------------------------------------|
E|----------------------------------------|

e---------------------------------------------------|
B---5-----5-----3-----3-----5-----5-----6------6----|
G--5-5---5-5---5-5---5-5---5-5---5-5---5-5----5-5---|
D---------------------------------------------------|x4
A---------------------------------------------------|
E---------------------------------------------------|

Lead Intro guitar 1.
e|----------------------------------------|
B|----5---6---5-------3---6---------------|
G|--5---5---5---5---5---5---5-4-5---------|
D|----------------------------------------|
A|----------------------------------------|
E|----------------------------------------| x4

guitar 2
e|-----------------------------------------------------------------------|
B|-----------------------------------------------------------------------|
G|---5~------------------------------------------------------------------|x2
D|---5~--------------2~--------3~----------------------------------------|
A|---3~--------------2~--------3~----------------------------------------|
E|-------------------0~--------1~----------------------------------------|

e|-----------------------------------------------------------------------|
B|-----------------------------------------------------------------------|
G|-----------------------------------------------------------------------|x1
D|---7~--------------5~--------3~----------------------------------------|
A|---7~--------------5~--------3~----------------------------------------|
E|---5~--------------3~--------1~----------------------------------------|

e|-----------------------------------------------------------------------|
B|-----------------------------------------------------------------------|
G|---5~------------------------------------------------------------------|x1
D|---5~--------------2~--------3~----------------------------------------|
A|---3~--------------2~--------3~----------------------------------------|
E|-------------------0~--------1~----------------------------------------|

verse
Guitar 1 - 2   Listen for Timing

e|-----------------------------------------------------------------------|
B|-----------------------------------------------------------------------|
G|----------------5--5-5-5-5---------------------------------------------|x4
D|--3--3-3-3-3----5--5-5-5-5----5--5-5-5-5-------------------------------|
A|--3--3-3-3-3----3--3-3-3-3----5--5-5-5-5-------------------------------|
E|--1--1-1-1-1------------------3--3-3-3-3-------------------------------|
      PM THESE      PM THESE      PM THESE

chorus guitar 1 - 2
e|-----------------------------------------------------------------------|
B|-----------------------------------------------------------------------|
G|---5-5-------7-7-7-7-----5-5-------------------------------------------|x2
D|---x-x--5-5--x-x-x-x-----x-x--5-5--3-3-3-3-----------------------------|
A|---3-3--x-x--5-5-5-5-----3-3--x-x--x-x-x-x-----------------------------|
E|--------3-3-------------------3-3--1-1-1-1-----------------------------|

intro
Lead Intro guitar 1.
e|----------------------------------------|
B|----5---6---5-------3---6---------------|
G|--5---5---5---5---5---5---5-4-5---------|
D|----------------------------------------|
A|----------------------------------------|
E|----------------------------------------| x4

Guitar 2

e|-----------------------------------------------------------------------|
B|-----------------------------------------------------------------------|
G|---5~------------------------------------------------------------------|x2
D|---5~--------------2~--------3~----------------------------------------|
A|---3~--------------2~--------3~----------------------------------------|
E|-------------------0~--------1~----------------------------------------|

verse
Guitar 1 - 2   Listen for Timing
e|-----------------------------------------------------------------------|
B|-----------------------------------------------------------------------|
G|----------------5--5-5-5-5---------------------------------------------|x2
D|--3--3-3-3-3----5--5-5-5-5----5--5-5-5-5-------------------------------|
A|--3--3-3-3-3----3--3-3-3-3----5--5-5-5-5-------------------------------|
E|--1--1-1-1-1------------------3--3-3-3-3-------------------------------|
      PM THESE      PM THESE      PM THESE

chorus guitar 1 - 2
e|-----------------------------------------------------------------------|
B|-----------------------------------------------------------------------|
G|---5-5-------7-7-7-7-----5-5-------------------------------------------|x2
D|---x-x--5-5--x-x-x-x-----x-x--5-5--3-3-3-3-----------------------------|
A|---3-3--x-x--5-5-5-5-----3-3--x-x--x-x-x-x-----------------------------|
E|--------3-3-------------------3-3--1-1-1-1-----------------------------|

bridge
e--------------------------------------------|
B--------------------------------------------|
G--5~~~~---5~~~~---5~~~---5~~~---5~~~--------| bend the string and keep
D--------------------------------------------|doing it for a while.
A--------------------------------------------|
E--------------------------------------------|

keep doing this till the chorus.
e---------------------------------------------------------------------------|
B--5--5-5---5--5-5---5--5-5----5--5-5---6--6-6---6--6-6---6--6-6---6--6-6---|
G55-55-5--55-55-5--55-55-5---55-55-5--55-55-5--55-55-6--55-55-5--55-55-5----|
D---------------------------------------------------------------------------|
A---------------------------------------------------------------------------|
E---------------------------------------------------------------------------|

chorus guitar 1 - 2
e|-------------------------------------------------------------------------|
B|-------------------------------------------------------------------------|
G|---5-5-------7-7-7-7-----5-5---------------------------------------------|x4
D|---x-x--5-5--x-x-x-x-----x-x--5-5--3-3-3-3-------------------------------|
A|---3-3--x-x--5-5-5-5-----3-3--x-x--x-x-x-x-------------------------------|
E|--------3-3-------------------3-3--1-1-1-1-------------------------------|

the strumming is slightly different as you can see.
e-------------------------------------------------------------------------|
B-------------------------------------------------------------------------|
G---5-5-------7~~-7-7---7-7-----5-5---------------------------------------|
D---x-x--5-5--x~~-x-x---x-x-----x-x--5-5--3~~-3-3--3-3--------------------|x2
A---3-3--x-x--5~~-5-5---5-5-----3-3--x-x--x~~-x-x--x-x--------------------|
E--------3-3-------------------------3-3--1~~-1-1--1-1--------------------|
outro
e|-----------------------------------------------------------------------|
B|-----------------------------------------------------------------------|
G|-----------------------------------------------------------------------|x3
D|-----------------------------------------------------------------------|
A|-----3---3----------3---3----------------------------------------------|
E|-0-0---0---0----1-1---1---1--------------------------------------------|

end on
e|----------------------|
B|----------------------|
G|-----5~---------------|
D|-----5~---------------|
A|-----3~---------------|
Tap to rate this tab
 
# A B C D E F G H I J K L M N O P Q R S T U V W X Y Z