Song name
# A B C D E F G H I J K L M N O P Q R S T U V W X Y Z

Angels And Airwaves - The Flight Of Apollo tab

---------------------------------------------------------------------------
			     The Flight of Apollo - Angels And Airwaves
---------------------------------------------------------------------------
Tabbed by:reign93
Email:masterchief3793@aol.com   ....(wen ur a kid dont create childish email acount 
they stay)

Tuning:Standard

Intro: Synth part then this comes in at 1:30
       Heavy Distortion
e|---------------------|
B|---------------------|
G|---------------------|
D|---------------------| repeat 4X
A|-7-7777-11-7-777-6---|
E|-5-5505-9--5-550-4---|

Verse: 1:41
Light Dist/Clean
e|---------------------|
B|---------------------|
G|-66666------9--------|
D|-66666------9---12---|
A|-44444------7---12---|
E|----------------10---|

Verse Cont. 2:06
e|---------------------------------------------------|
B|---------------------------------------------------|
G|--------6666666666-999999--------------------------|
D|-777777-6666666666-999999-12121212121212121212-----|
A|-777777-4444444444-777777-12121212121212121212-7~--|
E|-555555-------------------10101010101010101010-5~--|
   ...... .......... ...... ....................

Chorus: "So life doesnt hurt, doesnt hurt so badly"
        Clean, played soflty. slight reverb
e|---------|
B|---------|
G|-6~--9~--|Repeat throughout chorus
D|-6~--9~--|
A|-4~--7~--|
E|---------|

Post-Chorus 2:41 same as intro riff
Verse 2:55 same as verse
Verse Cont. 3:18 same ...
2nd Chorus Same

End of 2nd Chorus 3:54
e|------------|
B|------------|
G|------------|
D|------------|
A|-7~---------|
E|-5~---------|

-Break-

4:26 Same as Intro riff
Chorus riff 4:39-5:27

5:27-End
e|--------------------------------|
B|--------------------------------|
G|--------------------------------|
D|--------------------------------|Repeat until End
A|-77xxx77-xxxxxx-99xxx99-xxxxxx--|
E|-55xxx55-xxxxxx-77xxx77-xxxxxx--|

e|----|
B|----|
G|----|End on
D|----|
A|-7--|
E|-5--|


************************************
| x   dead note
| /   slide up
| \   slide down
| h   hammer-on
| p   pull-off
| ~   vibrato
| +   harmonic
| .   Mute note
| b   Bend
| pb  Pre-bend
| br  Bend release
| pbr Pre-bend release
| brb Bend release bend

************************************
Tap to rate this tab
 
# A B C D E F G H I J K L M N O P Q R S T U V W X Y Z