Song name
# A B C D E F G H I J K L M N O P Q R S T U V W X Y Z

Angels And Airwaves - Young London tab

This is a tab for AvAs Young London off of the new album LOVE.
i might have somethings wrong with it.
so if anyone notices anything just email me at link182zelda@gmail.com


INTRO
Guitar 1 (0:00-0:41)
E-------------------|
B-------------------| when Guitar 2 comes in
G-------------------| don't palm mute anymore
D-7-7--7-7----------|
A-7-7--7-7----------|
E-5-5--5-5----(7)---|
  * *  * *

Guitar 2 (0:13-0:41)
E-7p0-9p0-10p0-9p0-7p0-9p0-7p0-5p0-4p0-5p0-7p0-5p0-9p0-7p0-9p0-7p0-|
B------------------------------------------------------------------|
G------------------------------------------------------------------|
D------------------------------------------------------------------|
A------------------------------------------------------------------|
E------------------------------------------------------------------|

E-7p0-9p0-10p0-9p0-7p0-9p0-7p0-5p0-4p0-5p0-7p0-5p0-9p0-5p0-4p0-5p0-|
B------------------------------------------------------------------|
G------------------------------------------------------------------|
D------------------------------------------------------------------|
A------------------------------------------------------------------|
E------------------------------------------------------------------|

VERSE 1
Guitar 1 (0:42-1:01)
E-----------------------------------------------------------------|
B-----------------------------------------------------------------|
G---------------------------------7-7-7-7-7-7-7-7-7-7-7-7-7-7-7-7-|
D-7-7-7-7-7-7-7-7-7-7-7-7-7-7-7-7-7-7-7-7-7-7-7-7-7-7-7-7-7-7-7-7-|
A-7-7-7-7-7-7-7-7-7-7-7-7-7-7-7-7-5-5-5-5-5-5-5-5-5-5-5-5-5-5-5-5-|
E-5-5-5-5-5-5-5-5-5-5-5-5-5-5-5-5---------------------------------|
  * * * * * * * * * * * * * * * * * * * * * * * * * * * * * * * *

E-----------------------------------------------------------------|
B-----------------------------------------------------------------|
G---------------------------------4-4-4-4-4-4-4-4-4-4-4-4-4-4-4-4-|
D-7-7-7-7-7-7-7-7-7-7-7-7-7-7-7-7-4-4-4-4-4-4-4-4-4-4-4-4-4-4-4-4-|
A-7-7-7-7-7-7-7-7-7-7-7-7-7-7-7-7-2-2-2-2-2-2-2-2-2-2-2-2-2-2-2-2-|
E-5-5-5-5-5-5-5-5-5-5-5-5-5-5-5-5---------------------------------|
  * * * * * * * * * * * * * * * * * * * * * * * * * * * * * * * *

E-----------------------------------------------------------------|
B-----------------------------------------------------------------|
G-----------------------------------------------------------------|
D-4-4-4-4-4-4-4-4-4-4-4-4-4-4-4-4-2-2-2-2-2-2-2-2-2-2-2-2-2-2-2-2-|
A-4-4-4-4-4-4-4-4-4-4-4-4-4-4-4-4-2-2-2-2-2-2-2-2-2-2-2-2-2-2-2-2-|
E-2-2-2-2-2-2-2-2-2-2-2-2-2-2-2-2-0-0-0-0-0-0-0-0-0-0-0-0-0-0-0-0-|
  * * * * * * * * * * * * * * * * * * * * * * * * * * * * * * * *

Guitar 2 (0:42-1:01)
E-5----4-4-4-5----7-7-7-5----4-4-4-5----7-7-7-5----4-4-4-5----7-7-7-5-|
B-5----5-5-5-5----5-5-5-5----5-5-5-5----5-5-5-5----5-5-5-5----5-5-5-5-|
G---------------------------------------------------------------------|
D---------------------------------------------------------------------|
A---------------------------------------------------------------------|
E---------------------------------------------------------------------|

INTRO again
Guitar 1 (1:02-1:08)
E-------------------|
B-------------------|
G-------------------|
D-7-7--7-7----------|
A-7-7--7-7----------|
E-5-5--5-5----(7)---|
  * *  * *


VERSE 2
Guitar 1 (1:09-1:27)
E-----------------------------------------------------------------|
B-----------------------------------------------------------------|
G---------------------------------7-7-7-7-7-7-7-7-7-7-7-7-7-7-7-7-|
D-7-7-7-7-7-7-7-7-7-7-7-7-7-7-7-7-7-7-7-7-7-7-7-7-7-7-7-7-7-7-7-7-|
A-7-7-7-7-7-7-7-7-7-7-7-7-7-7-7-7-5-5-5-5-5-5-5-5-5-5-5-5-5-5-5-5-|
E-5-5-5-5-5-5-5-5-5-5-5-5-5-5-5-5---------------------------------|
  * * * * * * * * * * * * * * * * * * * * * * * * * * * * * * * *

E-----------------------------------------------------------------|
B-----------------------------------------------------------------|
G---------------------------------4-4-4-4-4-4-4-4-4-4-4-4-4-4-4-4-|
D-7-7-7-7-7-7-7-7-7-7-7-7-7-7-7-7-4-4-4-4-4-4-4-4-4-4-4-4-4-4-4-4-|
A-7-7-7-7-7-7-7-7-7-7-7-7-7-7-7-7-2-2-2-2-2-2-2-2-2-2-2-2-2-2-2-2-|
E-5-5-5-5-5-5-5-5-5-5-5-5-5-5-5-5---------------------------------|
  * * * * * * * * * * * * * * * * * * * * * * * * * * * * * * * *

E-----------------------------------------------------------------|
B-----------------------------------------------------------------|
G-----------------------------------------------------------------|
D-4-4-4-4-4-4-4-4-4-4-4-4-4-4-4-4-2-2-2-2-2-2-2-2-2-2-2-2-2-2-2-2-|
A-4-4-4-4-4-4-4-4-4-4-4-4-4-4-4-4-2-2-2-2-2-2-2-2-2-2-2-2-2-2-2-2-|
E-2-2-2-2-2-2-2-2-2-2-2-2-2-2-2-2-0-0-0-0-0-0-0-0-0-0-0-0-0-0-0-0-|
  * * * * * * * * * * * * * * * * * * * * * * * * * * * * * * * *

VERSE 2
Guitar 2 (1:09-1:27)
E-5----4-4-4-5----7-7-7-5----4-4-4-5----7-7-7-5----4-4-4-5----7-7-7-5-|
B-5----5-5-5-5----5-5-5-5----5-5-5-5----5-5-5-5----5-5-5-5----5-5-5-5-|
G---------------------------------------------------------------------|
D---------------------------------------------------------------------|
A---------------------------------------------------------------------|
E---------------------------------------------------------------------|

CHORUS
Guitar 1 (1:28-1:56)
E-----------------|
B-----------------|
G-----7~--7~--4~--|
D-7~--7~--7~--4~--|
A-7~--5~--4~--2~--|
E-5~--------------|

No guitars play from (1:56-2:02)

INTRO again
Guitar 1 (2:03-2:17)
E-------------------|
B-------------------|
G-------------------|
D-7-7--7-7----------|
A-7-7--7-7----------|
E-5-5--5-5----(7)---|


Guitar 2 (2:03-2:17)
E-7p0-9p0-10p0-9p0-7p0-9p0-7p0-5p0-4p0-5p0-7p0-5p0-9p0-7p0-9p0-7p0-|
B------------------------------------------------------------------|
G------------------------------------------------------------------|
D------------------------------------------------------------------|
A------------------------------------------------------------------|
E------------------------------------------------------------------|

E-7p0-9p0-10p0-9p0-7p0-9p0-7p0-5p0-4p0-5p0-7p0-5p0-9p0-5p0-4p0-5p0-|
B------------------------------------------------------------------|
G------------------------------------------------------------------|
D------------------------------------------------------------------|
A------------------------------------------------------------------|
E------------------------------------------------------------------|

CHORUS
No guitars play from (2:18-3:11)

CHORUS/ENDING
Guitar 1 (3:12-3:39)
E-----------------|
B-----------------|
G-----4~--6~--7~--|
D-7~--4~--6~--7~--|
A-7~--2~--4~--5~--|
E-5~--------------|

Guitar 2 (3:12-3:39)
E-5-5-5-5-5-5-5-5-5-5-5-5-5-5-|
B-5-5-5-5-5-5-5-5-5-5-5-5-5-5-|
G-----------------------------|
D-----------------------------|
A-----------------------------|
E-----------------------------|

pick slide

Now this seems more like the inrto to shove
but its the last 1:10 to Young London.


Guitar 2 (3:53-5:03)
E-14-14-14------12~-----14-14-14------12~----11~--|
B------------12~-------------------12~-------12~--|
G-------------------------------------------------|
D-------------------------------------------------|
A-------------------------------------------------|
E-------------------------------------------------|
Tap to rate this tab
 
# A B C D E F G H I J K L M N O P Q R S T U V W X Y Z