Guitaretab - guitar tabs
Song name
# A B C D E F G H I J K L M N O P Q R S T U V W X Y Z

Angels And Airwaves - The Flight Of Apollo tab

-------------------------------------------------------------------------------
			     The Flight Of Apollo - Angels & Airwaves
-------------------------------------------------------------------------------
Tabbed by: Andy Wareing

Tuning: Drop C


Intro Part 1: 0:42-1:30 (delay)
D|---------------------------------------------------------------------------|
A|---------------------------------------------------------------------------|
F|---------------------------------------------------------------------------|
C|----7~---5~---3~-----------------------------------------------------------|
G|---------------------------------------------------------------------------|
C|---------------------------------------------------------------------------|


Intro Part 2: 1:30-1:41 (distortion)
D|---------------------------------------------------------------------------|
A|---------------------------------------------------------------------------|
F|---3-3-3-3-3---3-3-3-3-----------------------------------------------------|
C|---3-3-3-3-3-0-3-3-3-3-0---------------------------------------------------| x4
G|---1-1-0h1-0-0-1-1-0h1-0---------------------------------------------------|
C|-------------0---------0---------------------------------------------------|


Verse: 1:41-2:06 (overdrive)
D|---------------------------------------------------------------------------|
A|---------------------------------------------------------------------------|
F|--1212121212---10--88888888------------------------------------------------|
C|--xxxxxxxxxx---x---88888888------------------------------------------------| x4
G|--1010101010---8---66666666------------------------------------------------|
C|---------------------------------------------------------------------------|


Pre-Chorus: 2:06-2:18 (distortion)
D|---------------------------------------------------------------------------|
A|---------------------------------------------------------------------------|
F|--7------8------10---------------------------------------------------------|
C|--7--x8--8--x8--10--x16----------------------------------------------------| x2
G|--5------6------8----------------------------------------------------------|
C|---------------------------------------------------------------------------|
	PM	  PM		PM


Chorus: 2:18-2:42 (clean)
D|---------------------------------------------------------------------------|
A|---------------------------------------------------------------------------|
F|----3---2---3---2---3---5---7---8------------------------------------------|
C|----x---2---x---2---x---x---x---x------------------------------------------| 
G|----1---0---1---0---1---3---5---6------------------------------------------|
C|---------------------------------------------------------------------------|


Pre-Verse: 2:42-2:54 (distortion)
D|---------------------------------------------------------------------------|
A|---------------------------------------------------------------------------|
F|---3-3-3-3-3---3-3-3-3-----------------------------------------------------|
D|---3-3-3-3-3-0-3-3-3-3-0---------------------------------------------------| x4
G|---1-1-0h1-0-0-1-1-0h1-0---------------------------------------------------|
C|-------------0---------0---------------------------------------------------|


Verse 2: 2:54-3:18 (overdrive)
D|---------------------------------------------------------------------------|
A|---------------------------------------------------------------------------|
F|--1212121212---10--88888888------------------------------------------------|
C|--xxxxxxxxxx---x---88888888------------------------------------------------| x4
G|--1010101010---8---66666666------------------------------------------------|
C|---------------------------------------------------------------------------|


Pre-Chorus: 3:18-3:30 (distortion)
D|---------------------------------------------------------------------------|
A|---------------------------------------------------------------------------|
F|--7------8------10---------------------------------------------------------|
C|--7--x8--8--x8--10--x16----------------------------------------------------| x2
G|--5------6------8----------------------------------------------------------|
C|---------------------------------------------------------------------------|
	PM	  PM		PM

[ Tab from: http://www.guitaretab.com/a/angels-and-airwaves/214315.html ]
Chorus: 3:30-3:54 (clean)
D|---------------------------------------------------------------------------|
A|---------------------------------------------------------------------------|
F|----3---2---3---2---3---5---7---8---3--------------------------------------|
C|----x---2---x---2---x---x---x---x---3--------------------------------------|
G|----1---0---1---0---1---3---5---6---1--------------------------------------|
C|---------------------------------------------------------------------------|


Bridge 1: 3:54-4:27 (delay)
D|---------------------------------------------------------------------------|
A|---------------------------------------------------------------------------|
F|---------------------------------------------------------------------------|
C|----7~---5~---3~-----------------------------------------------------------|
G|--------3------------------------------------------------------------------| x2
C|---------------------------------------------------------------------------|


Bridge 2: 4:27-4:39 (distortion)
D|---------------------------------------------------------------------------|
A|---------------------------------------------------------------------------|
F|---3-3-3-3-3---3-3-3-3-----------------------------------------------------|
C|---3-3-3-3-3-0-3-3-3-3-0---------------------------------------------------| x4
G|---1-1-0h1-0-0-1-1-0h1-0---------------------------------------------------|
C|-------------0---------0---------------------------------------------------|


Chorus: 4:39-5:27 (clean)
D|---------------------------------------------------------------------------|
A|---------------------------------------------------------------------------|
F|----3---2---3---2---3---5---7---8------------------------------------------|
C|----x---2---x---2---x---x---x---x------------------------------------------| x2
G|----1---0---1---0---1---3---5---6------------------------------------------|
C|---------------------------------------------------------------------------|


Outro: 5:27- (overdrive)
D|---------------------------------------------------------------------------|
A|---------------------------------------------------------------------------|
F|----33xxx33xxxxxx22xxx22xxxxxx---------------------------------------------|
C|----33xxx33xxxxxx22xxx22xxxxxx---------------------------------------------| x2
G|----11xxx11xxxxxx00xxx00xxxxxx---------------------------------------------|
C|---------------------------------------------------------------------------|

D|---------------------------------------------------------------------------|
A|---------------------------------------------------------------------------|
F|----33xxx33xxxxxx55xxx55xxxxxx---------------------------------------------|
C|----33xxx33xxxxxx55xxx55xxxxxx---------------------------------------------| x1
G|----11xxx11xxxxxx33xxx33xxxxxx---------------------------------------------|
C|---------------------------------------------------------------------------|

D|---------------------------------------------------------------------------|
A|---------------------------------------------------------------------------|
F|----33xxx33xxxxxx88xxx88xxxxxx---------------------------------------------|
C|----33xxx33xxxxxx88xxx88xxxxxx---------------------------------------------| x1
G|----11xxx11xxxxxx66xxx66xxxxxx---------------------------------------------|
C|---------------------------------------------------------------------------|

D|---------------------------------------------------------------------------|
A|---------------------------------------------------------------------------|
F|----33xxx33xxxxxx22xxx22xxxxxx---------------------------------------------|
C|----33xxx33xxxxxx22xxx22xxxxxx---------------------------------------------| x2
G|----11xxx11xxxxxx00xxx00xxxxxx---------------------------------------------|
C|---------------------------------------------------------------------------|

D|---------------------------------------------------------------------------|
A|---------------------------------------------------------------------------|
F|----33xxx33xxxxxx55xxx55xxxxxx---------------------------------------------|
C|----33xxx33xxxxxx55xxx55xxxxxx---------------------------------------------| x1
G|----11xxx11xxxxxx33xxx33xxxxxx---------------------------------------------|
C|---------------------------------------------------------------------------|

D|---------------------------------------------------------------------------|
A|---------------------------------------------------------------------------|
F|----33xxx33xxxxxx88xxx88xxxxxx---------------------------------------------|
C|----33xxx33xxxxxx88xxx88xxxxxx---------------------------------------------| x1
G|----11xxx11xxxxxx66xxx66xxxxxx---------------------------------------------|
C|---------------------------------------------------------------------------|


************************************

| /   slide up
| \   slide down
| h   hammer-on
| p   pull-off
| ~   vibrato
| +   harmonic
| x   Mute note
| b   Bend
| pb  Pre-bend
| br  Bend release
| pbr Pre-bend release
| brb Bend release bend

************************************
Related for The Flight Of Apollo tab
The Flight Of Apollo chords by Angels And Airwaves