Song name
# A B C D E F G H I J K L M N O P Q R S T U V W X Y Z

Angels And Airwaves - Valkyrie Missile tab

It´s with delay, and the delay speed should be the same(in the intro) as The Adventure "342mms"

Intro
e----------------------------------------------------------------------------|
B----------------------------------------------------------------------------|
G---------------------------7-7-7-6-6-6-6-6----------------------------------|
D--------7-7-7-7-7-7------------------------------------ It should be 2 or 3-|
A----------------------------------------------------------------------------|  times
E----------------------------------------------------------------------------|


e-----------------------------------------------------|
B-----------------------------------------------------|
G------9-9-9---------------7-7-7-6-6-6-6--------------|  lots of times till
D---------------7-7-7-7-------------------------------|  verse
A-----------------------------------------------------|
E-----------------------------------------------------|


verse (David James Kennedy) delay speed is different. Play it till Tom starts to sing 
only you'll hold on...."
e----------------------------------------------------------------------------|
B----------------------------------------------------------------------------|
G----------------------------------------9-(9)--7-(7)-6-(6)------------------|
D---11(11)---7(7)--------------------------------------------7-(7)-7-(7)-(7)-|
A--------------------7(7)-(7)-(7)--------------------------------------------|
E----------------------------------------------------------------------------|


verse (Tom Delonge) slight distortion.
Also play it till words "If only you´ll hold on..."
You should listen where he plays it. You can hear it well.
e-------------------------------------------------|
B-------------------------------------------------|
G-------------------6-6-6-------------------------|
D-------------------7-7-7-------------------------|
A-------------------0-0-0-------------------------|
E-------------------------------------------------|


Bridge parts in between verses are same as the intro.


Outro (David James Kennedy) Heavy distortion

e|--------------------------------------|
B|--------------------------------------|
G|--------------------------------------|  x6
D|----11/12/11--7/9---12/11-------------|
A|-----x/-x/-x--x/x----x/-x-------------|
E|-----9/10/-9--5/7---10/-9-------------|


e-------------------------   ----------------|
B-------------------------   ----------------|
G-------------------------   ----------------|
D---11/12/11----7/9--7/9--X2 ----11/7--------|
A----x/-x/-x----x/x--x/x--   -----x/x--------|
E----9/10/-9----5/7--5/7--   -----9/5--------|


Outro (Tom Delonge)
You can play it with or without palm mute, but if you have good delay pedal I
recommend you to play with palm mute because it sounds awesome !!
Play it as many times as you need. Delay speed equals intro delay speed.
e--------------------------------------------------------------------------|
B--------------------------------------------------------------------------|
G--------14---------14-----------14----------16------------13------13------|
D-----------14--14------14--14-------14--14-------14--14--------14------14-|
A--------------------------------------------------------------------------|
E--------------------------------------------------------------------------|


and then(as many times as you need) Delay speed equals intro delay speed.
e-------12-12-12------------------------------------------------------------|
B----------------10-10-10-10-10--12-12-12-9-9-9-9-9-9--10-10-10-10-10-10-10-|
G---------------------------------------------------------------------------|
D---------------------------------------------------------------------------|
A---------------------------------------------------------------------------|
E---------------------------------------------------------------------------|

----------------------------------------------------------------|
--10-12-12-12-12-12--12-9-9-9-9-9-9-9-9--10---------------------|
----------------------------------------------------------------|
----------------------------------------------------------------|
----------------------------------------------------------------|
----------------------------------------------------------------|


( ) - echo
/ - slide
Tap to rate this tab
# A B C D E F G H I J K L M N O P Q R S T U V W X Y Z