Song name
# A B C D E F G H I J K L M N O P Q R S T U V W X Y Z

Angels And Airwaves - The Flight Of Apollo tab

Great song off of a great album. I haven't seen a correct version
of this tab yet. The only part I'm unsure of is the chorus chords.
Other than that it's right.

Intro chords
e|---------------------------------|
B|---------------------------------|
G|---------------------------------|
D|------------6--------------------|
A|--7-7--6h7--4--7--7--6h7--2------|
E|--5-5--4h5-----5--5--4h5--0------|

Verse
e|---------------------------------|
B|---------------------------------|
G|-11-11-11--11-------9----7~------|
D|-x--x--x---x--------x----7~------|
A|-9--9--9---9--------7----5~------|
E|---------------------------------|
   |---------|
   Strum fast

Prechorus - Palm Muted
*Figure out the number of strums yourself, it's not hard
e|----------------------------------|
B|----------------------------------|
G|----------------------------------|
D|--7--7--9---------7--7--9---------|
A|--4--5--7--7--7---4--5--7---------|
E|-----------5--4-------------------|

*on the 2 chords on the 6th string, the strumming will be shorter. I believe its
4 strums for the A5 chord and 4 for the following chord. (as opposed to 8 strums for
all the others)
Again, just listen to the song and you'll hear what I mean.

Chorus - Unsure really of what's being played
Clean, strummed lightly
e|---------------------|
B|---------------------|
G|--6~-----9~----------|
D|--6~-----9~----------|
A|--4~-----7~----------|
E|---------------------|

Outro
e|---------------------------------------------------------------------------|
B|---------------------------------------------------------------------------|
G|---------------------------------------------------------------------------|
D|--7--7------7--7------6--6------6--6------7--7------7--7-------------------|
A|--x--x--xx--x--x--xx--x--x--xx--x--x--xx--x--x--xx--x--x--xx---------------|
E|--5--5--xx--5--5--xx--4--4--xx--4--4--xx--5--5--xx--5--5--xx---------------|

e|---------------------------------------------------------------------------|
B|---------------------------------------------------------------------------|
G|---------------------------------------------------------------------------|
D|-6--6------6--6------7--7------9--9------9--9------7--7------7--7----------|
A|-x--x--xx--x--x--xx--x--x--xx--x--x--xx--x--x--xx--x--x--xx--x--x--xx------|
E|-4--4--xx--4--4--xx--5--5--xx--7--7--xx--7--7--xx--5--5--xx--5--5--xx------|

e|---------------------------------------------------------------------------|
B|---------------------------------------------------------------------------|
G|-7--7------7--7------------------------------------------------------------|
D|-x--x------x--x------------------------------------------------------------|
A|-5--5--xx--5--5------------------------------------------------------------|
E|-------xx------------------------------------------------------------------|

Repeat outro as necessary until song heads into Young London
Tap to rate this tab
# A B C D E F G H I J K L M N O P Q R S T U V W X Y Z