Song name
# A B C D E F G H I J K L M N O P Q R S T U V W X Y Z

Angels And Airwaves - The Flight Of Apollo tab

----------------------------------------------
  The Flight Of Apollo - Angels and Airwaves
----------------------------------------------
Tabbed by: Phil Torres
Email: Boss61607@live.com or myspace.com/boss61607

Notes:
I only tabbed out the main guitar parts, I'm still working on the guitar with
effects on it. If I end up figuring it out, I'll be sure to update the tab.
The song is in the key of A, the other tabs didn't seem like something Tom
would play or write, so I did my best to mimic his playing style.


Beginning (synth and effects on guitar)

Intro
e|------------------------------------|
B|------------------------------------|
G|------------------------------------|
D|-7~~~--7\6/7\6--11~~~--7~~--7\6/7~~-|  x4
A|-7~~~--7--------11~~~--7~~--7~~~~p0-|
E|-5~~~--5\4/5\4--9~~~~--5~~--5\4/5p0-|

Verse
e|---------------------------------|---------------------------------|
B|---------------------------------|---------------------------------|
G|-11-11-11-11-11------------------|----------------7~~~~~~~~~~~~~~~-|
D|-11-11-11-11-11------------------|-9--------------7~~~~~~~~~~~~~~~-|  x4
A|-9--9--9--9--9-------------------|-7--------------5~~~~~~~~~~~~~~~-|
E|---------------------------------|---------------------------------|

Pre-Chorus
 pm. . . . . . . . . . . . . . . .   . . . . . . . . . . . . . . . . 
e|---------------------------------|---------------------------------|
B|---------------------------------|---------------------------------|
G|---------------------------------|---------------------------------|
D|-6-6-6-6-6-6-6-6-7-7-7-7-7-7-7-7-|-9-9-9-9-9-9-9-9-9-9-9-9-9-9-9-9-|  x2
A|-4-4-4-4-4-4-4-4-5-5-5-5-5-5-5-5-|-7-7-7-7-7-7-7-7-7-7-7-7-7-7-7-7-|
E|---------------------------------|---------------------------------|

Chorus
e|----------------|----------------|----------------|----------------|
B|-2~~~~~~~~~~~~~-|----------------|-2~~~~~~~~~~~~~-|-3~~~~~~~~~~~~~-|
G|-2~~~~~~~~~~~~~-|-2~~~~~~~~~~~~~-|-2~~~~~~~~~~~~~-|-2~~~~~~~~~~~~~-|
D|-2~~~~~~~~~~~~~-|-2~~~~~~~~~~~~~-|-2~~~~~~~~~~~~~-|-2~~~~~~~~~~~~~-|  x4
A|-0~~~~~~~~~~~~~-|-2~~~~~~~~~~~~~-|-0~~~~~~~~~~~~~-|-0~~~~~~~~~~~~~-|
E|----------------|-0~~~~~~~~~~~~~-|----------------|----------------|

Repeat all

After the bridge,
Play intro
Play chorus twice

Outro
e|---------------------------------|---------------------------------|
B|---------------------------------|---------------------------------|
G|---------------------------------|---------------------------------|
D|-7-7-x-x-x-x-7-7-x-x-x-x-x-x-x-x-|-6-6-x-x-x-x-6-6-x-x-x-x-x-x-x-x-|
A|-7-7-x-x-x-x-7-7-x-x-x-x-x-x-x-x-|-7-7-x-x-x-x-7-7-x-x-x-x-x-x-x-x-|
E|-5-5-x-x-x-x-5-5-x-x-x-x-x-x-x-x-|-4-4-x-x-x-x-4-4-x-x-x-x-x-x-x-x-|

e|---------------------------------|---------------------------------|
B|---------------------------------|---------------------------------|
G|---------------------------------|-7-7-x-x-x-x-7-7-x-x-x-x-x-x-x-x-|
D|-7-7-x-x-x-x-7-7-x-x-x-x-x-x-x-x-|-7-7-x-x-x-x-7-7-x-x-x-x-x-x-x-x-|
A|-7-7-x-x-x-x-7-7-x-x-x-x-x-x-x-x-|-5-5-x-x-x-x-5-5-x-x-x-x-x-x-x-x-|
E|-5-5-x-x-x-x-5-5-x-x-x-x-x-x-x-x-|---------------------------------|

************************************

| /   slide up
| \   slide down
| h   hammer-on
| p   pull-off
| ~   let ring
| .   Palm mute
| x   Percusive string mute

************************************
Tap to rate this tab
# A B C D E F G H I J K L M N O P Q R S T U V W X Y Z