Song name
# A B C D E F G H I J K L M N O P Q R S T U V W X Y Z

Angels And Airwaves - Letters To God Part 2 tab

No here had a close enough intro to the song so here i what i think/know
 it is. Im only putting the intro because the other guy had the rest of 
the song pretty good so you can just look at it for that.

A bunch of effects are used so just play with what you have until your
happy with them.

Guitar one (All hammer-ons as if you were one hand tapping) Repeat a bunch
 of times

e|---8h---------------------------8h-----------------------------------------|
B|------5h-6h-5h-8h-6h-8h-6h---------5h-6h-5h-10h-6h-8h-6h-------------------|
G|---------------------------------------------------------------------------|
D|---------------------------------------------------------------------------|
A|---------------------------------------------------------------------------|
E|---------------------------------------------------------------------------|

The reason why i didnt put 0s (or open string) behind the hammer ons is
 because i think its sound better if you do your best to partially mute out
 that part. Play it as if you were tapping with only your left hand.

Guitar 2 (The good part)

e|-------8--8----------------------------------------------------------------|
B|-------------8--6--6--------8--5--5--------5--------5--5-------------------|
G|-5--5-----------------5--5-----------5--5-----7--7--------7----------------|
D|---------------------------------------------------------------------------|
A|---------------------------------------------------------------------------|
E|---------------------------------------------------------------------------|

e|-------8--8----------------------------------------------------------------|
B|-------------8--6--6--------8--5--5--------5-------------------------------|
G|-5--5-----------------5--5-----------5--5-----7--7--7--7--5----------------|
D|---------------------------------------------------------------------------|
A|---------------------------------------------------------------------------|
E|---------------------------------------------------------------------------|

and then repeat until the verse, which as i mentioned the other tab has so
 im not gonna copy it. If for some reason someone wanted to copy and paste
 this to make your own tabwith the rest of the song feel free to.
Tap to rate this tab
# A B C D E F G H I J K L M N O P Q R S T U V W X Y Z