Song name
# A B C D E F G H I J K L M N O P Q R S T U V W X Y Z

Angels And Airwaves - The Flight Of Apollo tab

NOTE: I'll include a few parts of synth I figured out on guitar, since I like the synth 
use.

INTRO: (Part 1 00:06 - 00:30)

                                 T  T T        |->x2
e--|--0-0---|-12-9-9-|-10-9-9-|----------------|--0-|
B--|-10-9-9-|-10-----|-10-----|-12-10-12-10-10-|-10-|
G--|--9-----|--------|--------|----------------|----|
D--|--------|--------|--------|----------------|----|
A--|--------|--------|--------|----------------|----|
E--|--------|--------|--------|----------------|----|

The last one only sounds at the end of the second, to go to the next part of the intro.

INTRO: (Part 2 00:30 - 01:30)

e--|---------9-----------|
B--|-10-9-10---10-9-10---|
G--|-------------------9-|
D--|---------------------|
A--|---------------------|
E--|---------------------|

The rest is part of FX. You can use Delay, Chorus, Reverb and Phaser to do something kinda.

INTRO: (Part 3 01:30 - 01:42)

e--|------------------------------|
B--|------------------------------|
G--|------------------------------|
D--|------------------------------|  x2
A--|-7-(7)/6-7-6-(6)/11-7-7/6/7-X-|
E--|-5-(5)/4-5-4-(4)/9--5-5/4/5-0-|

Looks dificult because of "slides" (/), but just listen the song, to figure out where to 
them, there are just 3 diferente power chords.

VERSE: (01:42 - 02:06)

e--|-------------|---|---|
B--|-------------|---|---|
G--|-11-11-11-11-|-9-|-7-|
D--|-11-11-11-11-|-9-|-7-| x4
A--|--9--9--9--9-|-7-|-5-|
E--|-------------|---|---|

PRE-CHORUS: (02:06 - 02:17)

     X X X X  X X X X  X X X X  X X X X  X X X X  X X X X  X X X X X X
e--|-------------------------------------------------------------------|
B--|-------------------------------------------------------------------|
G--|-------------------------------------------------------------------|
D--|-6-6-6-6--6-6-6-6--7-7-7-7--7-7-7-7--9-9-9-9--9-9-9-9--------------|
A--|-4-4-4-4--4-4-4-4--5-5-5-5--5-5-5-5--7-7-7-7--7-7-7-7--7-7-7-6-6-6-|
E--|-------------------------------------------------------5-5-5-4-4-4-|

     X X X X  X X X X  X X X X  X X X X  X X X X  X X X X  X X X X  X X X X
e--|------------------------------------------------------------------------|
B--|------------------------------------------------------------------------|
G--|------------------------------------------------------------------------|
D--|-6-6-6-6--6-6-6-6--7-7-7-7--7-7-7-7--9-9-9-9--9-9-9-9--9-9-9-9--9-9-9-9-|
A--|-4-4-4-4--4-4-4-4--5-5-5-5--5-5-5-5--7-7-7-7--7-7-7-7--7-7-7-7--7-7-7-7-|
E--|------------------------------------------------------------------------|

X= Palm Mute

CHORUS: (02:17 - 02:42)

This part is a bit difficult to listen clearly, but this is the closest i got.

NOTE: (*) Are notes that are sounding too, but DON'T TRY TO PLAY, our your going to 
out of tune without the synth; because, basically, the synth gives the tune to this part, 
the synth is playing with the harmony.

     A5   Ab6   B4    C#3   D5
e--|---|------|---|-------|---|
B--|---|------|---|-------|---|
G--|---|------|---|-------|---|
D--|---|------|---|-------|-7-|
A--|-7-|-7(6)-|-7-|-7(11)-|-5-|
E--|-5-|-4----|-7-|-9-----|---|

                        A5
...So it doesnt hurt so badly
        Ab6                         A5             Ab6                         A5
So life doesnt hurt, doesnt hurt so badly, so life doesnt hurt, doesnt hurt so badly
            B4                          C#3         D5                            A5
Please dont look at life, look at me so sadly. Life shouldnt hurt, doesnt hurt so badly

INTRO: (Part 3 02:42 - 02:54)

VERSE: (02:54 - 3:18)

PRE-CHORUS: (03:18 - 03:30)

CHORUS: (03:30 - 03:54)

INTERLUDE: (Part 1 03:54 - 04:18)

NOTE: I'll "add" another 6th, to tab more "ghosts" notes

e--|-(9)-------(9)--------------|
B--|--14---12---10-10/9/10---12-|
G--|----------------------------|
D--|----------------------------| x2
A--|----------------------------|
E--|-(5)--(4)--(5)----------(4)-|
->E|-(5)--(4)--(2)----------(4)-|

Play every "figure" every time tune switchs

INTERLUDE: (Part 2 04:18 - 04:27)

     A
e--|-5-|
B--|-5-|
G--|-6-|
D--|-7-|
A--|-7-|
E--|-5-|


INTRO: (Part 3 04:27 - 04:39)

CHORUS: (04:39 - 05:27)

OUTRO: (05:27 - END)

NOTE: I'll write 2 guitars, because the 2 sounds ok for me; choose the 1 you like:

GUITAR 1:

e--|-------------------------------------------------|
B--|-------------------------------------------------|
G--|-------------------------------------------------|
D--|-------------------------------------------------|
A--|-7-7--7-7--7-6-6--6-6--6-7-7--7-7--7-6-6--6-6--6-|
E--|-5-5--5-5--5-4-4--4-4--4-5-5--5-5--5-4-4--4-4--4-|

e--|-------------------------------------------------|
B--|-------------------------------------------------|
G--|-------------------------------------------------|
D--|-------------------------6-6--6-6--6-7-7--7-7--7-|
A--|-7-7--7-7--7-9-9--9-9--9-4-4--4-4--4-5-5--5-5--5-|
E--|-5-5--5-5--5-7-7--7-7--7-------------------------|

GUITAR 2:

e--|-------------------------------------------------|
B--|-------------------------------------------------|
G--|-------------------------------------------------|
D--|-------------------------------------------------|
A--|-7-7--7-7--7-6-6--6-6--6-7-7--7-7--7-6-6--6-6--6-|
E--|-5-5--5-5--5-4-4--4-4--4-5-5--5-5--5-4-4--4-4--4-|

e--|-------------------------------------------------|
B--|-------------------------------------------------|
G--|-------------------------------------------------|
D--|-------------------------2-2--2-2--2-7-7--7-7--7-|
A--|-7-7--7-7--7-7-7--7-7--7-4-4--4-4--4-5-5--5-5--5-|
E--|-5-5--5-5--5-7-7--7-7--7-------------------------|

Closest version, for now, I guess.
Tap to rate this tab
 
# A B C D E F G H I J K L M N O P Q R S T U V W X Y Z